Black Sabbath - Sabbath Bloody Sabbath Chords & Tabs

 

Sabbath Bloody Sabbath Chords & Tabs

Black Sabbath Chords & Tabs

Version: 3 Type: Bass Tab 0 ratings
1 star 2 stars 3 stars 4 stars 5 stars
comments

Sabbath Bloody Sabbath Bass Tab

   
Sabbath Bloody Sabbath - Black Sabbath
Tabbed by: JohnnyBlade a.k.a. IronMan email: frogblender2004@yahoo.com
Bass Section performed by: Geezer Butler

This entire tab will be written in sections, just in case you only
want to get down just that one riff.

Intro/Verse

This is the beginning, also played again in many other parts of
the song
			You see right through distorted eyes....
-------------------------------------------------------------------|
-------------------------------2-----------------------------------| x6 x4 x5
--2-4444--2-4444-44--0--2--4------44-------------------------------|
-------------------------------------------------------------------|

Bridge

The part played after the verse, and only after the verse.
	Nobody will ever let you know...
-------------------------------------------------------------------|
-------------------------------------------------------------------|
-4--2---4---2---4---2---4---2---0--2-------------------------------|
-------------------------------------------------------------------|

Verse Expansion

This comes right after the verse part is played around the 3rd
time.
[ Tab from: http://www.guitartabs.cc/tabs/b/black_sabbath/sabbath_bloody_sabbath_btab_ver_3.html ]
-------------------------------------------------------------------|
--444-2-44------------444-2-44-------------------------------------|
------------4-2-0-0-2------------4--2--0--2-0-2--------------------|
-------------------------------------------------4-----------------|

B-Section

This comes right after the Verse Expansion, and played with VERY
heavy distortion.
			Where can you ride to?
-------------------------------------------------------------------|
-----2-1-2-1-2-1------2-1-2-3--------------------------------------| x10 x10
--00--------------00-----------------------------------------------|
-------------------------------------------------------------------|

Verse Expansion - EXPANSION

This comes right after the B-Section and is only slightly modified
from the original Verse Expansion

-------------------------------------------------------------------|
--444-2-44--------444-2-44--------444-2-44-------------------------|
-----------4-2-0-----------4-2-0------------4-2-0-2----------------|
-----------------------------------------------------4-------------|

Almost Ending/Ending

This is played near the end

-------------------------------------------------------------------|
-------------------------------------------------------------------|
----44-2-44--0-2-0-22----------------------------------------------| x30
-------------------------------------------------------------------|

Ok this is the order

Verse
Bridge
Verse
Bridge
Verse
Verse Expansion
B-Section
Verse Expansion-EXPANSION
B-Section
Verse Expansion-EXPANSION
Ending
Comments