Black Sabbath - Rat Salad Chords & Tabs

 

Rat Salad Chords & Tabs

Black Sabbath Chords & Tabs

Version: 2 Type: Tab 0 ratings
1 star 2 stars 3 stars 4 stars 5 stars
comments

Rat Salad Tab

   
Rat Salad

Tableture Legend
/- slide up
\- slide down
p- pull off
h- hammer on
~- tremelo

Guitar 1- E,A,D,G,B,E
Guitar 2- E,A,D,G,B,E

|---------------------------|----------------------------|
|---------------------------|----------------------------| Intro
|-3~~~~~~~~~----------------|-3~~~~~~~~~-----------------|
|------------5--3-----------|------------5--3------------|
|-----------------5---------|-----------------5----------|
|--------------------3------|-------------------3/(15)\3-|

|-----------------------|-----------------------| 
|-----------------------|-----------------------|
|-----------------------|-----------------------| Guitar 1 Play really FAST!)
|-----------------------|-----------------------| Riff 1
|-----3h4p3h4p3h4p3-----|-----3h4p3h4p3h4p3-----|
|-3h6---------------6p3-|-3h6---------------6p3-|

|-----------------|-----------------|
|-----------------|-----------------|
|-----------------|-------Drum------| Guitar 1
|-----------------|-------Fill------| Repeat 2 times
|-----3-4-3h4-----|-----------------| Riff 2
|-3/6---------6-3-|-----------------|

|-----------------------|--------------------15-15-15-15-15-15\-|
|-----------------------|-6-8-10-8--------17-15-15-15-15-15-15\-|
|---------------3-5-7~--|---------------------------------------| Riff 3
|-----------3-5---------|---------------------------------------|
|-----3-4-5-------------|---------------------------------------|
|-3-6-------------------|---------------------------------------|

Solo
[ Tab from: http://www.guitartabs.cc/tabs/b/black_sabbath/rat_salad_tab_ver_2.html ]
|------------------------------------------------------------|
|------------------------------------------------------------|
|--7h8p7~~~-7h8-10p8-----------------------------------------| Guitar 2
|--------------------8p7-------------------------7h8-10p8~~~-|
|------------------------10p8-7----8p7----8p7----------------|
|-------------------------------10-----10-----10-------------|

|--------------------------------------------------------------------------|
|------------------------------------6/7~~---------------------------------|
|-------------------------------8h10---------8p7-8-------------------------|
|-8----------------------7h8-10--------------------8p7h8-10-----5h7-7-7~~~-|
|---8p7----8p7----7h8-10------------------------------------7h8------------|
|-------10-----10----------------------------------------------------------|

|------------------|----------------|
|------------------|----------------|
|------------------|------Drum------|
|------------------|------Fill------|
|-----3-4-3h4------|----------------|
|-3/6---------6-3--|----------------|

|------------------------|------------------15-15-15-15-15-15\-|
|------------------------|-6-8-10-8~~----17-15-15-15-15-15-15\-|
|---------------3-5-7~~~-|-------------------------------------|
|-----------3-5----------|-------------------------------------|
|-----3-4-5--------------|-------------------------------------|
|-3/6--------------------|-------------------------------------|

|--------------------------------------------------------------|
|--------------------------------------------------------------|
|----------------------------Drum------------------------------|
|----------------------------Solo------------------------------|
|--------------------------------------------------------------|
|--------------------------------------------------------------|


How To Play:

Intro
Riff 1
Riff 2
Riff 2
Riff 3
Solo
Riff 1
Riff 1
Riff 2
Riff 3
Drum Solo
Riff 1
Riff 1
Riff 2
Riff 3
End

Tabbed by: Speedy D
Tabbed: 11/25/04
Band: Black Sabbath (Paranoid 1970)
Song: Rat Salad

Don't eat no Rat Salad.

Changes are welcome!
Comments