Black Sabbath - Planet Caravan Chords & Tabs

 

Planet Caravan Chords & Tabs

Black Sabbath Chords & Tabs

Version: 1 Type: Bass Tab 0 ratings
1 star 2 stars 3 stars 4 stars 5 stars
comments

Planet Caravan Bass Tab

h = hammer on
b = bend string

|----------------------7--|-----------------|
|------------------5h7----|----------7b--5--|
|-----7---7-----7---------|--5---5----------|
|-------------------------|-----------------|

[ Tab from: http://www.guitartabs.cc/tabs/b/black_sabbath/planet_caravan_btab.html ]
	Sometimes he does |-------------7--7-------|
	these in place of |-----------7------7-----|
	the second measure|--5---5-------------5---|
			  |------------------------|


			  |-------------------|
			  |-------------------|
			  |--5---5-----7-5-7--|
			  |-------------------|


			  |---------------------|
			  |----------7-5-7-5----|
			  |--5---5-----------7--|
			  |---------------------|

What can i say, Geezer Butler is the man.  


tabd by the Electric Head  (88)
Comments