Black Sabbath - Paranoid Chords & Tabs

 

Paranoid Chords & Tabs

Black Sabbath Chords & Tabs

Version: 15 Type: Tab 0 ratings
1 star 2 stars 3 stars 4 stars 5 stars
comments

Paranoid Tab

PARANOID - Ozzy \ Randy Rhoads

	This was pretty hard to learn by ear, but i did it.  My friend Rockne showed me the 
intro on his guitar and i picked up the rest by ear.  It may not be all correct, 
but i tried ive not even played guitar for a year yet so here it is.
Tabbed out by Bobby Dixon II 
email:  randyrhodesliveson@hotmail.com

RANDY RHOADS KICKS ASS!!!!!!!!!!
  

  
 INTRO  
 --------------------------------|--------------------------------| 
 --------------------------------|--------------------------------| 
 --------------------------------|--------------------------------| 
 --------------------------------|--------12-h14----------12-h14--| 
 (12)h14-----(12)h14-----(12)h14-|12-h14----------12-h14----------| 
 12----------12----------12------|--------------------------------| 
  
 --------------------------------|--------------------------------| 
 --------------------------------|--------------------------------| 
 --------------------------------|--------------------------------| 
 --------------------------------|--------12-h14----------12-h14--|
 (12)h14-----(12)h14-----(12)h14-|12-h14----------12-h14----------| 
 12----------12----------12------|--------------------------------| 
 
 --------------------------------|--------------------------------| 
 --------------------------------|--------------------------------| 
 --------------------------------|--------------------------------| 
 --------------------------------|--------12-h14----------12------| 
 (12)h14-----(12)h14-----(12)h14-|12-h14----------12-h14-(12)-h14-| 
 12----------12----------12------|--------------------------------| 

 --------------------------------|--------------------------------| 
 --------------------------------|--------------------------------| 
 --------------------------------|--------------------------------| 
 --------------------------------|--------12-h14----------12-h14--| 
 (12)h14-----(12)h14-----(12)h14-|12-h14----------12-h14----------| 
 12----------12----------12------|--------------------------------| 
[ Tab from: http://www.guitartabs.cc/tabs/b/black_sabbath/paranoid_tab_ver_15.html ]
INTRO STOPS AND GOES TO 
MAIN RIFF
 -----------------------------------------------------------------------------------
 -----------------------------------------------------------------------------------
 -----------------------------------------------------------------------------------
 -----------------------------------------------------------------------------------
 14-14-14-14---14-14-14-14---14-14-14-14----------10h12--12-12-12-12-12-12-12-12----
 12-12-12-12---12-12-12-12---12-12-12-12-----10h12-------10-10-10-10-10-10-10-10----
     X  X  X       X  X  X    X  X  X  X                  X  X  X  X     X  X  X     
 
 ----------------------------
 ----------------------------
 ---------12h13p12h13p12-----
 12--------------------------
 10-12-14--------------------
 ---10-12--------------------                         
 
 -----------------------------------------------------------------------------------
 -----------------------------------------------------------------------------------
 -----------------------------------------------------------------------------------
 -----------------------------------------------------------------------------------
 14-14-14-14---14-14-14-14---14-14-14-14----------10h12--12-12-12-12-12-12-12-12----
 12-12-12-12---12-12-12-12---12-12-12-12-----10h12-------10-10-10-10-10-10-10-10----
     X  X  X       X  X  X    X  X  X  X                  X  X  X  X     X  X  X     

 -----------------------------------21-19--------------------------
 ------------------------------19/21-------------------------------
 ------------------------------------------------------------------
 12----------------------------------------------------------------
 10-12-14----7----10--12--14----------------7--------10-12-14------
 ---10-12----0-----8--10--12----------------0---12\8--8-10-12--17\0
            / \                            / \
       dive with whammy                 dive again


repeat main riffs till solo


solo:

    
e|-------------------|-------------------|----------------------| 
B|-------------------|-------------------|----------------------| 
G|-12p9----9---------|-----9----9--------|----------------------| 
D|------12-----------|-------12---12-9---|----------------------| 
A|-------------------|-------------------|-10h12-10h12-10\7-7---| 
E|-------------------|-------------------|----------------------| 

    
e|------------------|------------------|---------------------------| 
B|------------------|------------------|-----8-10-10b12r10p8-10b12=| 
G|------------------|----------7h9-9---|-7-9-----------------------| 
D|------------------|------7h9---------|---------------------------| 
A|-10-7---7---------|-7h10-------------|---------------------------| 
E|------------------|------------------|---------------------------| 

    
e|-------------------|--------------------|-------------------| 
B|=r10p8-10--8-------|--------------17-15-|-17----17----17-15-| 
G|-------------9-9-9-|-7-9-9-9-9/16-------|-------------------| 
D|-------------------|--------------------|-------------------| 
A|-------------------|--------------------|-------------------| 
E|-------------------|--------------------|-------------------| 


e|-17b19-17b19-17b19r17p15-17p15----|-15p12----------------------------| 
B|-------------------------------17-|-------15-15p12-------------------| 
G|----------------------------------|----------------14-12-14-14p12----| 
D|----------------------------------|-------------------------------14-| 
A|----------------------------------|----------------------------------| 
E|----------------------------------|----------------------------------| 

  
e|--------------------------|-----------------------------------| 
B|--------------------------|-----------------------------------| 
G|-12----12-14b16r14-12-----|-14b16--12h14p12----12-------------| 
D|----14--------------------|-----------------14----14----------| 
A|--------------------------|--------------------------12h13h14-| 
E|--------------------------|-----------------------------------| 

    
e|-----------------------------|---------------------|-------------| 
B|-----------------------------|---------------------|-------------| 
G|-----------------------------|-----------12--------|-------------| 
D|-12--------------------------|-12--12-14----14-12--|-14-12----14-| 
A|-----14-12-14p12----12h13h14-|---------------------|-------------| 
E|-----------------15----------|---------------------|-------------| 

repeat main riffs till end of song.

tablature explanation: 

b--> bend (to the equivalent of the next number) 
r--> release bend 
h--> hammer-on 
p--> pull-off 
=--> hold bend 
/--> slide up 
\--> slide down 
X--> palm mute
Comments