Black Sabbath - Paranoid (out Of Tab Book) Chords & Tabs

 

Paranoid (out Of Tab Book) Chords & Tabs

Black Sabbath Chords & Tabs

Version: 1 Type: Tab 2 ratings
1 star 2 stars 3 stars 4 stars 5 stars
comments

Paranoid (out Of Tab Book) Tab

BEGINING:
|--------------------------------------------|
|--------------------------------------------|
|--------------------------------------------|
|-7h9-7h9-7h9---------7-9------7-------------|
|-7---7---7------7-9------7-9----------------|
|--------------------------------------------|
[ Tab from: http://www.guitartabs.cc/tabs/b/black_sabbath/paranoid_out_of_tab_book_tab.html ]
VERSE:
|-----------------------------------------------------------12---------------------|
|-----------------------------------------------------------12---------------------|
|-------------------------------------------------7---------12---------------------|
|-9-9-9-9-9-9-9-9-9-9-9-9-9-9-9-9-7-7-7-7-7-7-7-7-5-7-9-----12---------------------|
|-7-7-7-7-7-7-7-7-7-7-7-7-7-7-7-7-5-5-5-5-5-5-5-5---5-7----------------------------|
|----------------------------------------------------------------------------------|


PRE-CHORUS:
|--------------------------------------------------------------|
|--------------------------------------------------------------|
|--------------------------------------------------------------|
|-9-9-9-9-9-9-9-9-9-9-9-9-9-9-9-9--5--7------------------------|
|-7-7-7-7-7-7-7-7-7-7-7-7-7-7-7-7--3--5------------------------|
|------------------------------------|


CHORUS:
|----------------------------------|
|----------------------------------|
|----------------------------------|
|-9--7--9--7-----------------------|THEN GO BACK TO VERSE AND DO IT ALL OVER
|-7--5--7--5-----------------------|
|----------------------------------| 


GOOD LUCK!
		
Comments