Black Sabbath - Paranoid Chords & Tabs

 

Paranoid Chords & Tabs

Black Sabbath Chords & Tabs

Version: 13 Type: Bass Tab 0 ratings
1 star 2 stars 3 stars 4 stars 5 stars
comments

Paranoid Bass Tab

   
Black Sabbath
PARANOID - Paranoid
standard tuning.
E,A,D,G.

guitar does intro twice then bass comes in with the drums.
intro
G---|-----|-------------7-9--------7-9-|x2
D-4.|-----|----------7-9--------7-9----|
A-4.|-----|-2/7-7-7------7-7-7---------|
E---|-----|----------------------------|

G--------------------------------------------------------------|
D-------------------------------------------------5------------|
A-7-7-7-7-7-7-7-7-7-7-7-7-7-7-7-7-5-5-5-5-5-5-5-5---5--7---5---|
E------------------------------------------------------------7-|
                                             ...WITH MY MIND.
G--------------------------------------------------------------|
D-------------------------------------------------5--------7-5-|
A-7-7-7-7-7-7-7-7-7-7-7-7-7-7-7-7-5-5-5-5-5-5-5-5---5--7-------|
E--------------------------------------------------------------|
                                             ...ALL THE TIME

G------------------------5-----7---------------------------|x2
D----------------------5-----7-----------------------------|
A-7--7-7-7-7-7-7-7-7-3-----5-----7-7-7-7-7-7-7-7-7-7-7-7-7-|
E----------------------------------------------------------|

G--------------------------------------------------------------|
D-------------------------------------------------5------------|
A-7-7-7-7-7-7-7-7-7-7-7-7-7-7-7-7-5-5-5-5-5-5-5-5---5--7---5---|
E------------------------------------------------------------7-|
                                               ...sa-tis-fy
G-----------------------------7-9------------------------------|
D-------------------------7-9---------------------5--------7-5-|
A-7-7-7-7-7-7-7-7-7-7-7-7---------5-5-5-5-5-5-5-5---5--7-------|
E--------------------------------------------------------------|
                                               ...pa-ci-fy

G-----------------------------------7---7---7---7---7---7---7--7--|
D-----------------------------------------------------------------|
A-7-7-7--7-7-7--7---7-7-7--7-7-7--5---5---5---5---5---5---5---5---|
E-----------------------------------------------------------------|
                   CAN YOU HELP ME    OCCUPY MY BRAIN.____ 

G---9---9---9---9---9---9---9---9---7---7---7---7---7---7---7----7-|
D------------------------------------------------------------------|
A-7---7---7---7---7---7---7---7---5---5---5---5---5---5---5---5----|
E------------------------------------------------------------------|
   WO______                      YEAH.______
G------------------------------------------------------------|
D-----------------------------------------------5------------|
A-7-7-7-7-7-7-7-7-7-7-7-7-7-7-7-5-5-5-5-5-5-5-5---5--7---5---|
E----------------------------------------------------------7-|

G-------------------------------------------------------------|
D-------------------------------------------------5-------7-5-|
A-7-7-7-7-7-7-7-7-7-7-7-7-7-7-7-7-5-5-5-5-5-5-5-5---5--7------|
E-------------------------------------------------------------|
[ Tab from: http://www.guitartabs.cc/tabs/b/black_sabbath/paranoid_btab_ver_13.html ]
G-----------------------------7-9------------------------------|
D-------------------------7-9---------------------5------------|
A-7-7-7-7-7-7-7-7-7-7-7-7---------5-5-5-5-5-5-5-5---5--7---5---|
E------------------------------------------------------------7-|
                                               ...I_ CANT FIND
G-----------------------------7-9------------------------------|
D-------------------------7-9---------------------5--------7-5-|
A-7-7-7-7-7-7-7-7-7-7-7-7---------5-5-5-5-5-5-5-5---5--7-------|
E--------------------------------------------------------------|
                                               ...MUST BE BLIND.
____________________________________________________________________________
GUITAR SOLO
G------------------------------------------------------------|
D-----------------------------------------------5------------|
A-7-7-7-7-7-7-7-7-7-7-7-7-7-7-7-5-5-5-5-5-5-5-5---5--7---5---|
E----------------------------------------------------------7-|

G------------------------------------------------------------|
D-----------------------------------------------5--------7-5-|
A-7-7-7-7-7-7-7-7-7-7-7-7-7-7-7-5-5-5-5-5-5-5-5---5--7-------|
E------------------------------------------------------------|

G------------------------------------------------------------|
D-----------------------------------------------5------------|
A-7-7-7-7-7-7-7-7-7-7-7-7-7-7-7-5-5-5-5-5-5-5-5---5--7---5---|
E----------------------------------------------------------7-|

G------------------------------------------------------------|
D-----------------------------------------------5-------7-7\-|
A-7-7-7-7-7-7-7-7-7-7-7-7-7-7-7-5-5-5-5-5-5-5-5---5--7-------|
E------------------------------------------------------------|
____________________________________________________________________________

G-----------------------------7-9------------------------------|
D-------------------------7-9---------------------5------------|
A-7-7-7-7-7-7-7-7-7-7-7-7---------5-5-5-5-5-5-5-5---5--7---5---|
E------------------------------------------------------------7-|x2

G--------------------------------------------------------------|
D-------------------------------------------------5------------|
A-7-7-7-7-7-7-7-7-7-7-7-7-7-7-7-7-5-5-5-5-5-5-5-5---5--7---7-7-|
E--------------------------------------------------------------|
                                               ...I__WILL CRY.
G--------------------------------------------------------------|
D-------------------------------------------------5------------|
A-7-7-7-7-7-7-7-7-7-7-7-7-7-7-7-7-5-5-5-5-5-5-5-5---5--7---5---|
E------------------------------------------------------------7-|
                                               ...SO UN-REAL.
G------------------------5-----7--------------------------|
D----------------------5-----7----------------------------|
A-7--7-7-7-7-7-7-7-7-3-----5----7-7-7-7-7-7-7-7-7-7-7-7-7-|
E---------------------------------------------------------|x2


G-----------------------------7-9------------------------------|
D-------------------------7-9---------------------5------------|
A-7-7-7-7-7-7-7-7-7-7-7-7---------5-5-5-5-5-5-5-5---5--7---7-7-|
E--------------------------------------------------------------|
                                             ...OF_ MY STATE.
G-----------------------------7-9------------------------------|
D-------------------------7-9---------------------5--------7-5-|
A-7-7-7-7-7-7-7-7-7-7-7-7---------5-5-5-5-5-5-5-5---5--7-------|
E--------------------------------------------------------------|
                                               ...ITS TOO LATE.

G--------------------------------------------------------------|
D-------------------------------------------------5------------|
A-7-7-7-7-7-7-7-7-7-7-7-7-7-7-7-7-5-5-5-5-5-5-5-5---5--7---5---|
E------------------------------------------------------------7-|

G-----------------------------7-9---------------------------||
D-------------------------7-9---------------------5---------||
A-7-7-7-7-7-7-7-7-7-7-7-7---------5-5-5-5-5-5-5-5---5--7----||
E-----------------------------------------------------------||

PLEASE RATE AND COMMENT

ratbollocks. :)

PLEASE SEE MY OTHER SABATH TAB.
Comments