Black Sabbath - Nib Chords & Tabs

 

Nib Chords & Tabs

Black Sabbath Chords & Tabs

Version: 9 Type: Tab 0 ratings
1 star 2 stars 3 stars 4 stars 5 stars
comments

Nib Tab

NIB by Black Sabbath tabbed by Robert Hamner
All I have is the solo
e------------------------------------------------------------------------------------|
b------------------------------------------------------------------------------------|
g------------------------------------------------------------------------------------|
d--------------------------------99 9/12 12 12/14 14 14b(16)-------------------------|
a10 9h10p9----10 9h10p9 --9/10 12----------------------------------------------------|
E----------12----------12------------------------------------------------------------|
\=slide up /=slide down b()is a bend
[ Tab from: http://www.guitartabs.cc/tabs/b/black_sabbath/nib_tab_ver_9.html ]
------------------------------------------------------------------------------------------|
------------------------------15b12-------------------------------------------------------|
------------------------------------1414p12---121414p12-----------------------------------|
12h14p12 12141412141412141412--------------14----------14---------------------------------|
-----------moderately fast----------------------------------------------------------------|
------------------------------------------------------------------------------------------|
bar=bend and release
---------------------------------------------15b1515p14------------------------------|
--------------------------------12 15b15bar12----------------------------------------|
1412--1214b14b14p12 14p12-12h14------------------------------------------------------|
----14-------------------------------------------------------------------------------|
-------------------------------------------------------------------------------------|
-------------------------------------------------------------------------------------|

12b -12------------12--12b------------------------------------------------------|
--------15 14p12 14--15---15-12h14p12-------------------------------------------|
-------------------------------------1414bar12-14121412-------------------------|
--------------------------------------------------------------------------------|
--------------------------------------------------------------------------------|
--------------------------------------------------------------------------------|

-----------15p12--15p12-------------------------------------------------------------|
---------12-----12-----12-----------------------------------------------------------|
15b15b15b----------many times-and then----------------------------------------------|
------------------------------------------------------------------------------------|
------------------------------------------------------------------------------------|
------------------------------------------------------------------------------------|
free time\/
15b15p141215-------------------------------------------------------------|
------------ 151412------------------------------------------------------|
-------------------14121412111214b---------------------------------------|
----------------------------------141211---------------------------------|
----------------------------------------14-------------------------------|
-------------------------------------------------------------------------|
Comments