Black Sabbath - Nib Chords & Tabs

 

Nib Chords & Tabs

Black Sabbath Chords & Tabs

Version: 6 Type: Tab 2 ratings
1 star 2 stars 3 stars 4 stars 5 stars
comments

Nib Tab

   
N.I.B       
Black Sabbath

                                                                                                                                                                                     
Tab Legend                                                                                                                  Dur. Legend
h      - hammer-on                                                                                                         Q    -quarter
p      - pull-off                                                                                                                
b      - bend                                                                                                                    
pb    - pre-bend
r       - bend release
/ \     - slide
s      - legato slide
S      - shift slide
~      - vibrato
Tr    - trill
=      - hold bend
.     - nat. harmonic                                                                                                                                                 From Gklitz                                   


Gtr I  (E A D G B E) dist electric
Gtr II (E A D G B E) dist electric


Bass Intro                
Q=173                       
4/4

Gtr I
Gtr II

Pre-Verse

||-------------------|---------------------------|--------------------|
||-------------------|---------------------------|--------------------|
||-------------------|---------------------------|--------------------|
||------------5--4---|------------7b9===(7)r5----|------------5--4----|
||--7-7-5-7----------|-7-7-5-7-------------------|-7-7-5-7------------|
||-------------------|---------------------------|--------------------|
           

                                                
|----------------------|
|----------------------|
|----------------------|
|----------------------|
|-7-7-5-7-----------7--|
|------------0-5h7-----|
       


Verse

|-------------------|-----------7-----7\-------|
|-------------------|-----------8.----8.--\----|
|-------------------|--------------------------|
|-9-9-7-9---12-11---|-9-9-7-9------------------|
|-7-7-5-7---10--9---|-7-7-5-7------------------|
|-------------------|--------------------------|



|-------------------|--------------------|-------------------|
|-------------------|--------------------|-------------------|
|-------------------|--------------------|-------------------|
|-9-9-7-9---12-11---|-9-9-7-9------7tr9--|-9-9-7-9---12-11---|
|-7-7-5-7---10--9---|-7-7-5-7---/7-------|-7-7-5-7---10--9---|
|-------------------|--------------------|-------------------|



|-----------7-----7\-------|-------------------|--------------||
|-----------8.----8.\------|-------------------|--------------||
|--------------------------|-------------------|--------------||
|-9-9-7-9------------------|-9-9-7-9---12-11---|-9-9-7-9------||
|-7-7-5-7------------------|-7-7-5-7---10--9---|-7-7-5-7------||
|--------------------------|-------------------|--------------||
                                                

Interlude


|-------------------|-------------------|-------------------|
|-------------------|-------------------|-------------------|
|-------------------|-------------------|-------------------|
|------5-7-7p5------|------5-7-7p5------|------5-7-7p5------|
|-5h7----------7----|-5h7----------7----|-5h7----------7----|
|-------------------|-------------------|-------------------|



|--7-------------7------------------(7)---------||
|-10b12==(10)r--10b12==(12)==(10)==(10)r--------||
|-----------------------------------------------||
|-----------------------------------------------||
|-----------------------------------------------||
|-----------------------------------------------||


Bridge


|---------------|--------------|--------------|-------------|
|---------------|--------------|--------------|-------------|
|---------------|--------------|--------------|-------------|
|--9----(9)---9-|-7----(7)---7-|-5----(5)---5-|-4----(4)--4-|
|--7----(7)---7-|-5----(5)---5-|-3----(3)---3-|-2----(2)--2-|
|---------------|--------------|--------------|-------------|



|---------------|--------------|--------------|-------------|------------|
|---------------|--------------|--------------|-------------|------------|
|---------------|--------------|--------------|-------------|------------|
|--9-----(9)--9-|-7----(7)---7-|-5----(5)---5-|-4---(4)---4-|-5--(5)---5-|
|--7-----(7)--7-|-5----(5)---5-|-3----(3)---3-|-2---(2)---2-|-3--(3)---3-|
|---------------|--------------|--------------|-------------|------------|



|--------------|--------------|----------|------------||
|--------------|--------------|----------|------------||
|--------------|--------------|----------|------------||
|-4----(4)---4-|-5----(5)---5-|-4--------|-(4)--------||
|-2----(2)---2-|-3----(3)---3-|-2--------|-(2)--------||
|--------------|--------------|----------|------------||


Gtr Solo

Gtr I
Gtr II

|-------------------------|---------------|-------------------------------|
|-------------------------|---------------|-------------------------------|
|-------------------------|---4-4--4s7-7--|-7h9-9---9b11==(9)r-9b11==(9)r-|
|-5-4h5p4---5-4h5p4---4s5-|-7-------------|-------------------------------|
|---------7---------7-----|---------------|-------------------------------|
|-------------------------|---------------|-------------------------------|


 Gtr I
                      
                       
|--------------------------|----------------------------------------------------|
|--------------------------|------------------8---10p=8--------------8-------10-|
|-9b11==(9)r==(9)-7h9p7--7-|-/9-9-/9-9-(9)--------------9-----------------------|
|--------------------------|----------------------------------------------------|
|--------------------------|----------------------------------------------------|
|--------------------------|----------------------------------------------------|
|                                                                                  
|Gtr II
|                                         
|--------------------------|----------------------------------------------------|
|--------------------------|--------------------------------10b12==(10)r(10)p=8-|
|-9b11==(9)r==(9)-7h9p7--7-|-/9-9-/9-9--9--9-/9-9--9-/9-9-9---------------------|
|--------------------------|----------------------------------------------------|
|--------------------------|----------------------------------------------------|
|--------------------------|----------------------------------------------------|



|---------------------------------------------------|
|-10b12==(10)r(10)p8-10----10b12==(10)r(10)p8-10-8--|
|------------------------9--------------------------|
|---------------------------------------------------|
|---------------------------------------------------|
|---------------------------------------------------|
|                                                   |  
|                                                   | 
|---------------------------------------------------|
|---------10----------8-10-10b12==(10)r(10)p8-10----|
|------------------9-----------------------------9--|
|---------------------------------------------------|
|---------------------------------------------------|
|---------------------------------------------------|


|----------------------------------------------------|
|-10b12==(10)r(10)p8-10---10b12==(10)r--10b12==(10)--|
|-----------------------9----------------------------|
|----------------------------------------------------|
|----------------------------------------------------|
|----------------------------------------------------|
|                                                    | 
|                                                    | 
|----------------------------------------------------|
|-10b12==(10)r(10)p8-10-8-10b12==(10)r--10b12==(10)--|
|----------------------------------------------------|
|----------------------------------------------------|
|----------------------------------------------------|
|----------------------------------------------------|


|--------------------------------|----------------------|
|-(10)r(10)-10p8h10-8--(8)-------|----------------------|
|-------------------------s12----|-------------------4--|
|--------------------------------|---5-4h5p4---4h5h7----|
|--------------------------------|-----------7----------|
|--------------------------------|----------------------|
|                                                       | 
|                                                       | 
|                                                       | 
|--------------------------------|----------------------|
|-(10)r(10)-10p8----8---8s====12-|----------------------|
|-----------------9--------------|-------------------4--|
|--------------------------------|---5-4h5p4---4h5h7----|
|--------------------------------|-----------7----------|
|--------------------------------|----------------------|


Gtr I
Gtr II


|---------------|------------------------------|
|---------------|------------------------------|
|-4--4s7-7s9-9--|-9s12-12--12h14-14b16==(14)r--|
|---------------|------------------------------|
|---------------|------------------------------|
|---------------|------------------------------|



|-----12-12-------------------------|
|-12--------15b17==(15)r(15)-15-12--|
|-----------------------------------|
|-----------------------------------|
|-----------------------------------|
|-----------------------------------|


 Gtr I
  
|-15p12----15p12----15p12----15p12-15b17==(15)r--|
|-------12-------12-------12---------------------|
|------------------------------------------------|
|------------------------------------------------|
|------------------------------------------------|
|------------------------------------------------|
|                                                | 
|Gtr II                                          | 
|                                                | 
|-15p12----15p12----15p12----15p12-15b17==(15)r--|
|-------12-------12-------12---------------------|
|------------------------------------------------|
|------------------------------------------------|
|------------------------------------------------|
|------------------------------------------------|



|-15-12h15p12----12-----------------------------12--|
|-------------15----15p12---------------------------|
|-------------------------14b15========(14)r--------|
|---------------------------------------------------|
|---------------------------------------------------|
|---------------------------------------------------|
|                                                   | 
|                                                   | 
|                                                   | 
|-15-12h15p12----12--------------------------12-----|
|-------------15----15p12---------------12------15--|
|-------------------------14b15==(14)r--------------|
|---------------------------------------------------|
|---------------------------------------------------|
|---------------------------------------------------|



|---------------12-------------------------------------------------|
|-15b17==(15)r-----15p12----12----15-------------------------------|
|------------------------15-------------14b16==(14)r-14b16==(14)r--|
|------------------------------------------------------------------|
|------------------------------------------------------------------|
|------------------------------------------------------------------|
|                                                                  | 
|                                                                  |                         
|                                                                  | 
|---------------12----------12-------------------------------------|
|-15b17==(15)r-----15p12-------15p===12----------------------------|
|------------------------15-------------14b16==(14)r---------12~~~-|
|------------------------------------------------------------------|
|------------------------------------------------------------------|
|------------------------------------------------------------------|
                                                             

[ Tab from: http://www.guitartabs.cc/tabs/b/black_sabbath/nib_tab_ver_6.html ]
|-----------------------------------------------------------------||
|-----------------------------------------------------------------||
|-14----12h14p12-----------------12-14b16==(14)r(14)p12-----------||
|------------------------14---------------------------------------||
|-----------------------------------------------------------------||
|-----------------------------------------------------------------||
|                                                                 ||   
|                                                                 ||  
|                                                                 ||  
|-----------------------------------------------------------------||
|-----------------------------------------------------------------||
|-------12-------14b16==(14)-14r------------12~~~~~~~~~~(12)------||
|-12h14------------------------------------------------------14---||
|-----------------------------------------------------------------||
|-----------------------------------------------------------------||

Verse
Bridge
Verse
Interlude

Gtr Solo II
Gtr I & II

|-------------------------|---------------|
|-------------------------|---------------|
|-------------------------|---4-4--4s7-7--|
|-5-4h5p4---5-4h5p4---4s5-|-7-------------|
|---------7---------7-----|---------------|
|-------------------------|---------------|



|--------------------------------|--------------------------|
|--------------------------------|--------------------------|
|-7h9-9----9b11==(9)r-9b11==(9)r-|-9b11==(9)r==(9)-7h9p7--7-|
|--------------------------------|--------------------------|
|--------------------------------|--------------------------|
|--------------------------------|--------------------------| 


   
|-----------------------------10b12==(10)r-----|
|----------------------------------------------|
|-/9-9-9-/9-9-9-/9-9-9-/9-9-9------------------|
|----------------------------------------------|
|----------------------------------------------|
|----------------------------------------------|
            
Gtr I

|--------------------------------------------------------------|
|-10b12==(10)r--8---------10p===8-----8-10-10b12==(10)r(10)p=8-|
|----------------------------------9---------------------------|
|--------------------------------------------------------------|
|--------------------------------------------------------------|
|--------------------------------------------------------------|
|                                                              |
|Gtr II                                                        | 
|                                                              | 
|--------------10----------------------------------------------|
|-10b12==(10)r----10b12==(10)r(10)p8-10-------------8-------10-|
|----------------------------------------9---------------------|
|--------------------------------------------------------------|
|--------------------------------------------------------------|
|--------------------------------------------------------------|



|--------------------------------------------------------|
|---------10----------8-10-10b12==(10)r--10b12==(10)-----|
|------------------9-------------------------------------|
|--------------------------------------------------------|
|--------------------------------------------------------|
|--------------------------------------------------------|
|                                                        |
|                                                        |  
|                                                        | 
|--------------------------------------------------------|
|-10b12==(10)r(10)p8-10----10b12==(10)r--10b12==(10)r----|
|------------------------9-------------------------------|
|--------------------------------------------------------|
|--------------------------------------------------------|
|--------------------------------------------------------|



|----------------------------------------------------------------12-|
|--------(10)r(10)-10p==8h=10----------8----------------------12----|
|------------------------------------------------14b16==(14)r-------|
|-------------------------------------------------------------------|
|-------------------------------------------------------------------|
|-------------------------------------------------------------------|
|                                                                   |
|                                                                   |  
|                                                                   | 
|---------------------------------------------12-----------------12-|
|------------------------------------------12-----------------12----|
|-10b12==(10)------10r(10)----14b16==(14)r-------14b16==(14)r-------|
|-------------------------------------------------------------------|
|-------------------------------------------------------------------|
|-------------------------------------------------------------------| 



|---------------------15b17==(15)r-15-15p12--------------------|
|-15b17==(15)r--15-12-----------------------15b17=====(15)r----|
|--------------------------------------------------------------|
|--------------------------------------------------------------|
|--------------------------------------------------------------|
|--------------------------------------------------------------|
|                                                              | 
|                                                              | 
|                                                              | 
|---------------------15b17==(15)r----15----12h====15p======12-|
|-15b17==(15)r--15-12------------------------------------------|
|--------------------------------------------------------------|
|--------------------------------------------------------------|
|--------------------------------------------------------------|
|--------------------------------------------------------------|



|-12----------------------------------------------------------------------|
|-------15------------12------12----15b17==(15)r-15----15b17==(15)r----15-|
|--------------------------14---------------------------------------------|
|-------------------------------------------------------------------------|
|-------------------------------------------------------------------------|
|-------------------------------------------------------------------------|
|                                                                         | 
|                                                                         |
|                                                                         |  
|----12-----------------------12-----------------12--------------------12-|
|-15----15-12--------------12----15-15b17==(15)r----15---------12---------|
|-------------14b16==(14)r------------------------------------------14----|
|-------------------------------------------------------------------------|
|-------------------------------------------------------------------------|
|-------------------------------------------------------------------------|



|----------------------------------------------------------------------------------|
|--------12h=14p12-----------------------------------------------------------------|
|------------------14-------14b16==(14)r=(14)-12----14-------12---------14------12-|
|----------------------------------------------------------------------------------|
|----------------------------------------------------------------------------------|
|----------------------------------------------------------------------------------|
|                                                                                  |                                                                           |                                                                                  | 
|                                                                                  |
|-------------------------------------------------------------------------------12-|
|-15b17==15r-------12h14p12---------------12---------------------------------12----|
|---------------------------14b16==(14)r------14-12-14p12----12-14b16==(14)r-------|
|---------------------------------------------------------14-----------------------|
|----------------------------------------------------------------------------------|
|----------------------------------------------------------------------------------|



|-------------------------------------------------------------------------|
|---------------------------------------------------------------------12--|
|-14b16==(14)r--14b16==(14)r----14b16==(14)r========(14)------------------|
|-------------------------------------------------------------------------|
|-------------------------------------------------------------------------|
|-------------------------------------------------------------------------|
|
|          
|-------------------------------------------------------------------------|
|-15b17==(15)r----------15---12---------------------------------------12--|
|---------------------------------------14pb16r(14)p=12--14b16==(14)r-----|
|-------------------------------------------------------------------------|
|-------------------------------------------------------------------------|
|-------------------------------------------------------------------------|


Gtrs I, II
   
|-15p12----15p12----15p12----15p12----15p12----15p|
|-------12-------12-------12-------12-------12----|
|-------------------------------------------------|
|-------------------------------------------------|
|-------------------------------------------------|
|-------------------------------------------------|



|-12----15p12----15p12----15p12----15p12----15p12-|
|----12-------12-------12-------12-------12-------|
|-------------------------------------------------|
|-------------------------------------------------|
|-------------------------------------------------|
|-------------------------------------------------|



|----15p12----15p12----15p12----15p12----15p12--|
|-12-------12-------12-------12-------12--------|
|-----------------------------------------------|
|-----------------------------------------------|
|-----------------------------------------------|
|-----------------------------------------------|

 Gtr I

|-15b17=(15)r-15----12h15p12----12------------------------
|----------------------------15-----15p12-----------------
|------------------------------------------14b16=(14)r----
|---------------------------------------------------------
|---------------------------------------------------------
|---------------------------------------------------------
|
|Gtr II
|
|-15b17=(15)r-15p12--------12------------------------------
|---------------------15-------------------------15b17=(15)
|--------------------------------14p=======12--------------
|----------------------------------------------------------
|----------------------------------------------------------
|----------------------------------------------------------


-------------------------------15b17=(15)r-------15----|
---12-15b17=(15)r===(15)p12----------------------------|
-------------------------------------------------------|
-------------------------------------------------------|
-------------------------------------------------------|
-------------------------------------------------------|


------------------------------15b17=(15)r-15-12h15p=12-|
------------(15)r-15-12--------------------------------|
-------------------------------------------------------|
-------------------------------------------------------|
-------------------------------------------------------|
-------------------------------------------------------|


|-12h15p12------------------------------------------------------------------------------|
|----------15---14p===========12--------------------------------------------------------|
|----------------------------------14-12-14b16==(14)r-----------------------------------|
|---------------------------------------------------------------------------------------|
|---------------------------------------------------------------------------------------|
|---------------------------------------------------------------------------------------|
|
|      
|-------12------------------------------------------------------------------------------|
|-15------14p12-----------------------15-------------14p12------------------------------|
|------------------14-14b16==(14)r-------------------------14b16=(14)r-14b17=(14)r=(14)p|
|---------------------------------------------------------------------------------------|
|---------------------------------------------------------------------------------------|
|---------------------------------------------------------------------------------------|


|-------------|-----------------|
|-------------|-----------------|
|-------------|-----------------|
|-------------|-9---------------|
|-------------|-7---------------|
|-------------|-----------------|
|
|  
|-------------|-----------------|
|-------------|-----------------|
|-12----------|-----------------|
|-------------|-9---------12h14-|
|-------------|-7---------------|
|-------------|-----------------|


|--------------------------------------------------|------------|-------------|
|--------------------------------------------------|------------|-------------|
|--------------------------------------------------|------------|-------------|
|-(9)----------------------------------------------|-(9)--------|----9\-------|
|-(7)----------------------------------------------|-(7)--------|----7\-------|
|--------------------------------------------------|------------|-------------|
|
|                         
|--------------------------------------------------|------------|-------------|
|--------------------------------------------------|------------|-------------|
|-12--14-14pb16r(14)-12-14-12-12-------------------|------------|-------------|
|--------------------------------14-12h14-12-------|------------|----9\-------|
|--------------------------------------------14-12s|=11---------|----7\-------|
|--------------------------------------------------|------------|-------------|




If u nid 2 contact me just email me n friendster
ron_ula_07@yahoo.com/
gklitz@mtgplanet.com
Comments