Black Sabbath - Nib Chords & Tabs

 

Nib Chords & Tabs

Black Sabbath Chords & Tabs

Version: 7 Type: Bass Tab 0 ratings
1 star 2 stars 3 stars 4 stars 5 stars
comments

Nib Bass Tab

Black Sabbath- N.I.B (Native in Black)
Album- We Sold Our Souls to Rock and Roll
Tabbed by: Danny Corum (Vettedream89@aol.com)
Tuning: Standard-EADG

Start out after bass solo alone...

|----------------------------------------------------------------|
|----------5-4-----------9-7-5-----------5-4-------------------5-|
|-7-7-5-7-------7-7-5-7---------7-7-5-7-------7-7-5-7------5h7---|
|------------------------------------------------------5h7-------|

Then play again when drums and guitar come in...

|----------------------------------------------------------------|
|----------5-4-----------9-7-5-----------5-4-------------------5-|
|-7-7-5-7-------7-7-5-7---------7-7-5-7-------7-7-5-7------5h7---|
|------------------------------------------------------5h7-------|

Then play this...

|----------------------------------------------------------------------------
|---------5-4---------9-7-5---------5-4---------7b-7-5---------5-4-----------
|-7-7-5-7-----7-7-5-7-------7-7-5-7-----7-7-5-7--------7-7-5-7-----7-7-5-7---
|----------------------------------------------------------------------------

------------------------------|
-9-7-5-----------5-4----------|
--------7-7-5-7-------7-7-5-7-|
------------------------------|

Then play this...

|-----9-9-9---------7-7-7---------5-5-5---------4-4-4-----|
|---9-------9-----7-------7-----5-------5-----4-------4---|
|-7-----------7-5-----------5-3-----------3-2-----------2-|
|---------------------------------------------------------|

Back to main...
[ Tab from: http://www.guitartabs.cc/tabs/b/black_sabbath/nib_btab_ver_7.html ]
|----------------------------------------------------------------|
|----------5-4-----------9-7-5-----------5-4-------------------5-|
|-7-7-5-7-------7-7-5-7---------7-7-5-7-------7-7-5-7------5h7---|
|------------------------------------------------------5h7-------|

|----------------------------------------------------------------------------
|----------5-4---------9-7-5---------5-4---------7b-7-5---------5-4----------
|-7-7-5-7------7-7-5-7-------7-7-5-7-----7-7-5-7--------7-7-5-7-----7-7-5-7--
|----------------------------------------------------------------------------

------------------------------|
-9-7-5-----------5-4----------|
--------7-7-5-7-------7-7-5-7-|
------------------------------|

Your love for me...
|-----9--9---------7--7---------5--5---------------------9--9---------7-7----
|---9------9-----7------7-----5------5-----------------9------9-----7-----7--
|-7----------7-5----------5-3----------3-2-2-2-2-2-2-7----------7-5---------5
|----------------------------------------------------------------------------


-----5--5---------------------5--5---------4--4---------5--5-------|
---5------5-----------------5------5-----4------4-----5------5-----|
-3----------3-2-2-2-2-2-2-3----------3-2----------2-3----------3-2-|
-------------------------------------------------------------------|




Back to main again...
|----------------------------------------------------------------|
|----------5-4-----------9-7-5-----------5-4-------------------5-|
|-7-7-5-7-------7-7-5-7---------7-7-5-7-------7-7-5-7------5h7---|
|------------------------------------------------------5h7-------|
Comments