Black Sabbath - Never Say Die Chords & Tabs

 

Black Sabbath Chords & Tabs

Version: 1 Type: Tab 0 ratings
1 star 2 stars 3 stars 4 stars 5 stars
comments

Never Say Die Tab

Artist:Black Sabbath
Title:Never Say Die
Album:Never Say Die!
Tuning:EADGBE
Tabber:Justin van Uum


Main Riff
E-----------------------|
B-----------------------|
G--2---4---7---2--------|
D--2---4---7---2--------|
A--0---2---5---0--2p0---|
E---------------------3-|

"Don't you ever have to worry?''
E-------------------------------------------------------|
B-------------------------------------------------------|
G-------------------------------------------------------|
D-------------------------------------------------------|
A-3-----------------3-3-----2-2-----0-0-----------------|
E-1-----------------------------------------3-3-----1-1-|
"Don't you ever have to wonder why?"
E--------------------------------------|
B--------------------------------------|
G--------------------------------------|
D-------------------------0-0-----2----|
A-3-3-----2-2-----3-3---------------3--|
E--------------------------------------|
"It's a part of me that tells you"       "Don't you never say die"
E--------------------------------------||-------------|
B--------------------------------------||-------------|
G--------------------------------------||-------------|
D--------------------------------------||-------------|
A-3-3-----2-2-----0-0------------------||----0--2--3-5|
E-------------------------3-3-----1-3--||-------------|


E--------------------------------------------------------------------------|
B--------------------3---------5----------7-----------9----------10--------|
G--------------------5^(7`5)---7^(9`7)----9^(11`9)---11^(13`11)--12^(14`12)|
D--------------------------------------------------------------------------|
A--------------------------------------------------------------------------|
E--------------------------------------------------------------------------|

Never,Never,Never Say Die Again!
E-----------------------12------12------12------------|
B-12----------15p12--12-14^(16)-14^(16)-14^(16)-------|
G-14^(16`14)-------14---------------------------------|
D-----------------------------------------------------|
A-----------------------------------------------------|
E-----------------------------------------------------|


Don't you ever say die?Don't you ever say die?
E---------------------------------------------------------------|
B-12-----12-----10-----10-----12-----12-----10-----10-----------|
G---12-----12-----10-----10-----12-----12-----10-----10---------|
D-----12-----12-----10-----10-----12-----12-----10-----10-------|
A---------------------------------------------------------------|
E---------------------------------------------------------------|
[ Tab from: http://www.guitartabs.cc/tabs/b/black_sabbath/never_say_die_tab.html ]
Never Say Die
E-------------------------------------------------------------------------|
B-----5------5---7------5-----5----7--------------------------------------|
G----*--5--5----*--7---*--5--5----*--7---9-9-9-9--9-9-9--9-9-9-9--9-9-9---|
D---5----5-----7------5----5-----7----7--9-9-9-9--9-9-9--9-9-9-9--9-9-9---|
A-0-----------5------0----------5--------7-7-7-7--7-7-7--7-7-7-7--7-7-7---|
E-------------------------------------------------------------------------|

Main Riff Changes,there are 2 guitars now, and one play this:
E-------------------------------------|
B-------------------------------------|
G-------------------------------------|
D-7-4---4-7-7-4---4-7-4----4----------|
A-----7----------7-------7------------|
E-----------------------------5-5-5-5-|

Solo:

|-----------------------------------------------|
|----------------------------------5h8p5-----5--|
|-9p7--7--------------------5--7^--------7^-----|
|----10-10p9-10p9p7-9-7~~-----------------------|
|-----------------------------------------------|
|-----------------------------------------------|


|--------------------------------------------------|
|-5h8p5--5h8---------------------------------------|
|------7^---5-7-5----------------------------------|
|------------7---7/17\7------7-7------7-h-9--9^-9^-|
|-----------------------5-7/9------7h9-------------|
|--------------------------------------------------|

|------------------------------------------------------8-10-|
|----------------------5h8-5---5h8-5-----5h8-5---5h8/10-----|
|---------------7^~~~-------7^------7-7^------7^------------|
|-9^-9^97-7-------------------------------------------------|
|--------9--------------------------------------------------|
|-----------------------------------------------------------|

|-10p8--8-8-------------------------------------------------|
|-----10---10\8\7p5-----------------------------------------|
|------------------7p5-7p5-----------------------5h7-7p5h7--|
|---------------------7---7^~~~/(14)---------567------------|
|---------------------------------------3/5-7---------------|
|-------------------------------------5---------------------|

|--------------------------------------------------|
|-----5-8p5h8--------------------------------------|
|-5h8---------7p5h7p5-5----------------------------|
|--------------------7-7p5--7p5--------------------|
|------------------------------7\5p3---5p3---5p3---|
|------------------------------------5-----5-----5-|

|------------------------------------------------------------------|
|------------------------------------------------------------------|
|------------------------------------------------------------------|
|------------------------------------------------------------------|
|------------------------------------------------------------------|
|-5------5---p---/12------5------5---p---/12----5------5---p---/12-|
Comments