Black Sabbath - Lord Of This World Chords & Tabs

 

Lord Of This World Chords & Tabs

Black Sabbath Chords & Tabs

Version: 3 Type: Bass Tab 0 ratings
1 star 2 stars 3 stars 4 stars 5 stars
comments

Lord Of This World Bass Tab

this took me about 2 mins to figure out, so if its wrong, i am a beginner, SORRY!

intro

[-----------------------------]
[-----------------------------]  x2
[----7777-5-4-5-7-------------]
[------------------7-6-7------]


verse
[ Tab from: http://www.guitartabs.cc/tabs/b/black_sabbath/lord_of_this_world_btab_ver_3.html ]
[-------------------------------------------------]
[----------------------5-3------------------------]
[---5-5-3-5---5-5-3-5-------5-5-3-5---------------]
[------------------------------------5-0-3-5------]

Thats all i got at the 
moment but i will get 
some more and update it.
Comments