Black Sabbath - Looking For Today Chords & Tabs

 

Looking For Today Chords & Tabs

Black Sabbath Chords & Tabs

Version: 1 Type: Bass Tab 0 ratings
1 star 2 stars 3 stars 4 stars 5 stars
comments

Looking For Today Bass Tab

from - Michael James 

Looking For Today - Bass
Black Sabbath - SBS


|---------------------------------------------7-5----------
|-----7--7-5-4-------4---4-5-----7--7-5-4---------7-5------
|-0-0----------4/5-5---5-----0-0----------5-5--------------
|----------------------------------------------------------

|----------------------------------------------7-5---------
|-----7----5-4-------4---4-5-----7--7-5-4----------7-5-----
|-0-0----0-----4/5-5---5-----0-0----------5--5-------------
|----------------------------------------------------------
[ Tab from: http://www.guitartabs.cc/tabs/b/black_sabbath/looking_for_today_btab.html ]
Chorus:
|-----------------------------5----------5-----------------
|--------------------5---7--7---7-5-7--7---7-5-7-5---------
|-7--7--7-5-7-7--7-5---7-----------------------------------
|----------------------------------------------------------

|--------------------5-3-----------------------------------
|-5--5-5---3-5-5-5-3-----5-3-7-7-7-7-7-7-7---5-------------
|--------5---------------------------------7---5-7---------
|----------------------------------------------------------

Bridge:
|----------------------------------------------------------
|----------------------------------------------------------
|-5--5----------------5--5-5--------------------------5----
|-------8---7---6-6-8--------8-8-8-7-7-7-7-6--5-6-5-7------
                         use different variation of the above



Comments