Black Sabbath - Ironman Chords & Tabs

 

Ironman Chords & Tabs

Black Sabbath Chords & Tabs

Version: 2 Type: Tab 0 ratings
1 star 2 stars 3 stars 4 stars 5 stars
comments

Ironman Tab

   
#----------------------------------PLEASE NOTE---------------------------------#
#This file is the author's own work and represents their interpretation of the #
#song. You may only use this file for private study, scholarship, or research. #
#------------------------------------------------------------------------------#


Ironman - By Black Sabbath
Brian S 

intro : a few times
  F#
|----------------------------------------------------------------|
|----------------------------------------------------------------|
|----------------------------------------------------------------|
|----------------------------------------------------------------|
|----------------------------------------------------------------|
|-2b-decreasing bend-0-------------------------------------------|
                       I am Iron man… 
  B5  D5     E5      G  Gb         
|----------------------------------------------------------------|
|----------------------------------------------------------------|
|-----7~--7--9--9~---12-11-12-10-12--7-7~--9--9~-----------------|
|-9~--7~--7--9--9~---12-11-12-10-12--7-7~--9--9~-----------------|
|-9~--5~--5--7--7~---10-9--10-9--10--5-5~--7--7~-----------------|
|-7~-------------------------------------------------------------|
__________________________________________________________________
               v      
|--------------------------------|-------------------------------|
|--------------------------------|-------------------------------|
|--------------------------------|-------------------------------|  3x
|--------------0-----------------|-------------------------------| 
|--2---2---2---------2~-------1--|--0---0---0~~------------------|
|--------------------------------|----------------4~~--5~--6~-7--|
__________________________________________________________________

|--------------------------------|--------------------------------|
|--------------------------------|--------------------------------|
|------------------------2h3h4~--|------------------------2h3h4~--|
|4---4~------2~---2h3h4~---------|4--4~-------2~--2h3h4-----------|
|2---2~--2h5---------------------|2--2~---2h5---------------------|
|--------------------------------|--------------------------------|
__________________________________________________________________

Solo : (definitely not right) … I sorry
|--------------------------------|--------------------------------|
|--------------------------------|--------------------------------|
|6---4---------------------------|--------------------------------|
|------------6-------5-------4---|----2---------------------------| 2x
|--------------------------------|------------2---2-h-4---4-------|
|--------------------------------|--------------------------------|
						 
 							fast	
|----------------------------------_________________________------|
|-----------------------------------------------------------------|
|----------------------------------9-9-7------9-9-7----9-9-7------|
|----------------------------9p7~~-------9p7-------9p7-------9-7--|
|-----7~-7h9-----7h9-7h9-9p7--------------------------------------|
|-7h9--------7h9--------------------------------------------------|
[ Tab from: http://www.guitartabs.cc/tabs/b/black_sabbath/ironman_tab_ver_2.html ]
|------------------------------------12b-12b-12b|-----------------|
|-----12b--------------7h9----------------------|9p7--------------|
|---------7h9-----7h9-----9p7---9p7-------------|---9p7-----------|
|-7~~~--------7h9-------------9-----9-----------|-------9p7-------|
|-----------------------------------------------|-----------9p7-7~|
|-----------------------------------------------|-----------------|
 									3x

|-----------------------------------------------------------------|
|-----------------------------------------------------------------|
|-4b~-4b~-4b~-4b~-4b~-4b~-4b~-4b~-4b~-4b~-4b~-4b~~~~~-------------|
|-----------------------------------------------------------------|
|-----------------------------------------------------------------|
|-----------------------------------------------------------------|



|--------------------------------|--------------------------------|
|--------------------------------|--------------------------------|
|6---4---------------------------|--------------------------------|
|------------6-------5-------4---|----2---------------------------| 2x
|--------------------------------|------------2---2-h-4---4-------|
|--------------------------------|--------------------------------|

|--------------------------------|--------------------------------|
|--------------------------------|--------------------------------|
|------------------------2h3h4~--|------------------------2h3h4~--| 
|4---4~------2~---2h3h4~---------|-4--4~------2~--2h3h4-----------| 2x
|2---2~--2h5---------------------|-2--2~--2h5---------------------|
|--------------------------------|--------------------------------|

  B5  D5     E5      
|----------------------------------------------------------------|
|----------------------------------------------------------------|
|-----7~--7--9--9~---12-11-12-10-12--7-7~--9--9~-----------------| many
|-9~--7~--7--9--9~---12-11-12-10-12--7-7~--9--9~-----------------| times
|-9~--5~--5--7--7~---10-9--10-9--10--5-5~--7--7~-----------------|
|-7~-------------------------------------------------------------|

               v      
|--------------------------------|-------------------------------|
|--------------------------------|-------------------------------|
|--------------------------------|-------------------------------|  3x
|--------------0-----------------|-------------------------------| 
|--2---2---2---------2~-------1--|--0---0---0~~-0---1----2-------|
|--------------------------------|-------------------------------|

    drum solo
 
 End solo (heavy distortion)
  
|----------------|-----------------------|
|----------------|-----------------------|
|----------------|-----------------------| 
|----------------|--------4-5-4-5-4------|
|-7p5h7~-5h7-5~--|-7p5h7~-----------/7~~-|
|----------------|-----------------------|

|----------------|---------------------|---------------------------|
|----------------|---------------------|---------------------------|
|----------------|---------------------|---------------------------|
|----------------|--------4-5-4-5-4----|---licks-in-B-pentatonic---|
|-7p5h7~-5h7-5~--|-7p5h7~-----------/7~|---------------------------|
|----------------|---------------------|---------------------------|
 		
						  FORTE	
|----------------|--------------------|       |--________---------|
|----------------|--------------------|       |-------------------|
|----------------|--------------------|  3x   |-------------------|
|----------------|--------4-5-4-5-4---|       |-------------------| 
|-7p5h7~-5h7-5~--|-7p5h7~-----------7~|       |---7-5-7~----------|
|----------------|--------------------|       |-------------------|


Comments