Black Sabbath - Iron Man Chords & Tabs

 

Iron Man Chords & Tabs

Black Sabbath Chords & Tabs

Version: 9 Type: Tab 0 ratings
1 star 2 stars 3 stars 4 stars 5 stars
comments

Iron Man Tab

IRON MAN by Black Sabbath
Submitted by isthatmycow

hey.......i already submitted this tab but i forgot to put my name on it, lol.......sorry for the confusion..here it is again

|--------------------
|--------------------
|--------------------
|--------------------
|--------------------
|-1b1/4--0-----------
          I am Iron Man!!!!!
repeat twice without words

|------------------------------------------
|------------------------------------------    
|------------------------------------------   *this is the 
|----7--7/9-9--12\11-12\11-12\11--7-7/9-9--     rhythm      
|-9--5--5/7-7--10\9--10\9--10\9---5-5/7-7--
|-7----------------------------------------
repeat once

|------------------------------------------
|------------------------------------------
|------------------------------------------
|------------------------------------------
|----5--5h7--7--10\9-10\9-10\9--5--5h7--7--
|-7----------------------------------------
 has he lost     can  he  see   or is  blind
         his                        he
          mind

repeat throughout the verse

rhythm once

|------------------------------------------
|------------------------------------------
|------------------------------------------
|------------------------------------------
|----5--5h7--7--10\9-10\9-10\9--5--5h7--7--
|-7----------------------------------------

Is he live or dead? Has he thoughts within his head, ect.
repeat throughout the verse

* 1st riff
|------------------------------------------------------
|------------------------------------------------------
|------------------------------------------------------
|------------------------------------------------------
|-----5-------------------------5----------------------
|-7-7---7-6-5-5-5-0h4-5-5-6-7-7---7-6-5-5-5-0h4-5-5-6--

*end of 1st riff
|-----------------
|-----------------
|-----------------
|-----------------
|-----5-----------
|-7-7---7-6-5-5-5-

rhythm twice

|------------------------------------------
|------------------------------------------
|------------------------------------------
|------------------------------------------
|----5--5h7--7--10\9-10\9-10\9--5--5h7--7--
|-7----------------------------------------

He was turned to steel in the great magnetic field, ect.

*bridge
|----------------------------------------------------
|----------------------------------------------------
|----------------------------------------------------
|-9------------------7-------------------------------
|-7------------------5-------------------------------
|----------------------------------------------------
   Nobody wants him    he just stares at the -

|------------------------------------------------------
|------------------------------------------------------
|------------------------------------------------------
|---------------------7-8-9----------------------7-8-9-
|-9--9-------7--7-8-9--------9--9-------7--7-8-9-------
|-7--7--7-10-----------------7--7--7-10----------------
world

repeat once -
 Planning his vengance that he will soon unfurl

rhythm twice

|------------------------------------------
|------------------------------------------
|------------------------------------------
|------------------------------------------
|----5--5h7--7--10\9-10\9-10\9--5--5h7--7--
|-7----------------------------------------

Now the time is here for Iron Man to spread fear, ect.
[ Tab from: http://www.guitartabs.cc/tabs/b/black_sabbath/iron_man_tab_ver_9.html ]
bridge - 
Nobody wants him, they just turn their heads, ect.

*lead*
|---------------------------------------------
|---------------------------------------------
|---------------------------------------------
|-11-9-------------------11-9-----------------
|------11-10-9-7--------------11-10-9-7-------
|----------------7-7/9-9----------------7-7h9-

|----------------------------------------------------------
|----------------------------------------------------------
|----------------------------------9-9---------9-9---------
|-------------------------9-9-9h11-----11p9--------11p9----
|-----7h9-9p7----7h9-9/11-------------------11----------11-
|-7h9---------9h-------------------------------------------

|--------------9-------------------------------------------
|-----------/9---12-9-----------------------9-12p9----9----
|---------------------11-9-9-----------9h11--------11------
|-9h11-11--------------------11-9-9h11---------------------
|----------------------------------------------------------
|----------------------------------------------------------

|------------------------9--------/14-14-14-14p12----------
|-12p9----9-12p9----9-12---12-9-9-----------------14h-14---
|------11--------11----------------------------------------
|----------------------------------------------------------
|----------------------------------------------------------
|----------------------------------------------------------

|--------9-9-----------------------------------------------
|-12-14------12p9-----9-12-12p9----------------------------
|-----------------11h-----------11h-11p9-----9-9-----------
|----------------------------------------11h-----11p9------
|-----------------------------------------------------11---
|----------------------------------------------------------

|----------------------------------------------------------
|----------------------------------------------------------
|------9-9---------------9---------------------------------
|-9h11-----11p9-----9h11---9-9h11-9h11-9h11-9h11-9h11-11---
|---------------11h----------------------------------------
|----------------------------------------------------------

|----------------------------------------------------------
|----------------------------------------------------------
|----------------------------------------------------------
|-9h11-9h11-9h11-9h11-9h11-11-11-9-----------------11-9----
|----------------------------------11-10-9-7------------11-
|--------------------------------------------7-7/9---------

|--------------
|--------------
|--------------
|--------------
|-10-9-7-------
|--------7-7/9-

repeat 2nd 1/2 of bridge twice =
|------------------------------------------------------
|------------------------------------------------------
|------------------------------------------------------
|---------------------7-8-9----------------------7-8-9-
|-9--9-------7--7-8-9--------9--9-------7--7-8-9-------
|-7--7--7-10-----------------7--7--7-10----------------

rhythm twice

|------------------------------------------
|------------------------------------------
|------------------------------------------
|------------------------------------------
|----5--5h7--7--10\9-10\9-10\9--5--5h7--7--
|-7----------------------------------------

Heavy boots of lead, fills his victims full of dread, ect.

1st riff

extro......

if you have any questions, email me at isthatmycow@hotmail.com
Comments