Black Sabbath - Iron Man Chords & Tabs

 

Iron Man Chords & Tabs

Black Sabbath Chords & Tabs

Version: 6 Type: Tab 0 ratings
1 star 2 stars 3 stars 4 stars 5 stars
comments

Iron Man Tab

   
#----------------------------------PLEASE NOTE---------------------------------#
#This file is the author's own work and represents their interpretation of the #
#song. You may only use this file for private study, scholarship, or research. #
#------------------------------------------------------------------------------#

From:Deformed@mailcity.com
E-mail me if you have any comments or something.

                                                {}{}| IRON MAN |{}{}
                                                By:  Black Sabbath
Explanation:
/ slide,if I put --9/10--it means slide to it and strike it.
                ---7/8----
v vibrato
b bend
p pull
h hammer
5h7p5 hammer pull
            Standard tuning.
Intro
|-------------------------------------------------------------------------------------------|
|-------------------------------------------------------------------------------------------|
|-------------------------------------------------------------------------------------------|
|--------------------------4------7---7/9----12/11---12/11---12/7----7/9--------------------|
|--------------------------2------5---5/7----10/9----10/9----10/5----5/7--------------------|
|-0*-----0---0-----0------------------------------------------------------------------------|
 *Press down on the string behind the nut and it makes that cool dipping sound*

Riff 1                                                              Riff 2
|-----------------------------------------------------------|       |----------------------------------------------------------|
|-----------------------------------------------------------|       |----------------------------------------------------------|
|-----------------------------------------------------------|       |----------------------------------------------------------|
|--4----7---7/9----12/11---12/11---12/7----7/9--------------|       |-----------------------5p4--5p4--5p4----------------------|
|--2----5---5/7----10/9----10/9----10/5----5/7--------------|       |--2----5----5/7---7v------------------5---5/7----7/14-----|
|-----------------------------------------------------------|       |----------------------------------------------------------|
Riff 3                                                Riff 4                                   Riff 5
|-----------------------------------------------|     |--------------------------------------| |--------------------------------|
|-----------------------------------------------|     |--------------------------------------| |--------------------------------|
|-----------------------------------------------|     |----------------------------2--3--4---| |-6--4---------------------------|
|-----------------------------------------------|     |--4--4----------2---2--3--4-----------| |-------6--5--4--2---------------|
|-------5b--------------------------------------|     |--2--2---2---5------------------------| |-------------------2--2h4---4---|
|--6/7-------7--6--5--5--5--0---4--5--5--6------|     |--------------------------------------| |--------------------------------|

    SOLO 1
|-------------------------------------------------------------------------------------9--------------------------------------9----|
|----------------------------------------5-----------5--5-------------------------9-----12p9-----9-------------------------9------|
|-----------------------------4--4--4h6----6--6p4--------6p4----4h6---6v------11--11b--------11--9--9--9b-----------9-11b---------| CONTINUE
|-----2--2h4--4p2---2--4--4/6---------------------6-----------6-------------------------------------------11-9-9h11---------------|
|-2h4 ------------4---------------------------------------------------------------------------------------------------------------|
|---------------------------------------------------------------------------------------------------------------------------------|
[ Tab from: http://www.guitartabs.cc/tabs/b/black_sabbath/iron_man_tab_ver_6.html ]
|------------------------------------------9-------9--------12b--12b--12b--9h12p9-----9--------------9-------------9----------------|
|-12p9-------9--12p9------9--12p9-------9-----12b----12-9-9------------------------12---12--12b-12b----12p9------9----12p9----------|
|------11p9------------11---------11p9--------12b------------------------------------------------------------11b-----------11--11p9-|
|-----------------------------------------------------------------------------------------------------------------------------------|CONTINUE
|-----------------------------------------------------------------------------------------------------------------------------------|
|-----------------------------------------------------------------------------------------------------------------------------------|

|------------------------------------------------------------------------------------------------------------------|
|------------------------------------------------------------------------------------------------------------------|
|----9--9------------------9--9----------------9-------------------------------------------------------------------|
|-11------11p9-------9h11--------11p9----9h11------9h11-9h11-9h11--9h11-9h11-9h11-9h11-9h11-9h11--9h11-9h11-9h11---|
|----------------11-------------------11---------------------------------------------------------------------------|
|------------------------------------------------------------------------------------------------------------------|

Song
I am iron man[intro]
Verse 1
[riff2 2x]Has he lost his mind? Can he see or is he blind? Can he walk at all, or if he moves will he fall[riff1 1x]
[riff2 2x]Is he live or dead, I can see thoughts within his head.  We'll just pass him there.  Why should we even care[riff3 1x][riff1 2x]
verse 2
[riff2 2x]He was turned to steel in the great magnetic feild. when he traveled time for the future of mankind. Nobody wants him he just stares at the world.
[riff4 2x]Planning his vengeance, that he will soon furl[riff4 2x]
verse 3
[riff2 2x]Now the time is near for iron man to spread fear, vengeance from the grave kills the people he once saved.  Nobody wants him,
[riff4 2x]They just turn there heads, nobody helps him now he has his revenge[riff4 2x][riff5 2x][solo 1][riff5 2x][riff4 4x][riff1 2x]
[riff2 2x]Heavy boots of lead, fills his victims full of dread, running as fast as they can, iron man lives again![riff3 3x][riff6 1x][solo 2]

[riff6]
|------------------------------------------------------------------------------------|
|------------------------------------------------------------------------------------|
|------------------------------------------------------------------------------------|
|-------------------------4--5--4-5-4h5p4---------------------------4-5-4-5-4h5p4----|
|-7p5--7v--5h7p5--7p5-7v-------------------5--7-5-7v--5h7p5-7p5-7v----------------5--|
|------------------------------------------------------------------------------------|
Solo 2 guitar 1
|------------------------------------------------10-10/12----|
|--------------------------------------8---10/12-------------|
|-------------7--7-9-9b-9b-9b-7---7h9----9-------------------|
|-----5---7/9-------------------9----------------------------|
|-5/7---7----------------------------------------------------|
|------------------------------------------------------------|
guitar 2
|----------------------------------------------12b-12b-12bp10-12p10--10-------------------------------------------------------------|
|--------------------------------------------8--------------------------12-12/10-8--/10-8-------------------------------------------|
|-------------7-7/9--9b--9b-9b-7-9-7h9-9v-9v----------------------------------------------9-7-------------------------------7---7-9-|CONTINUE
|-----5-7-7/9---------------------------------------------------------------------------------9/7-5-7p5---5h7-------5-7-7/9---9-----|
|-5/7---------------------------------------------------------------------------------------------------7------5h7------------------|
|-----------------------------------------------------------------------------------------------------------------------------------|
CONTINUE
|-14---------------------------------------------------------------------------------------------------------------------------|
|-17b--17b-17bp15-17p15--------------------------------------------------------------------------------------------------------|
|-----------------------16-16/14-0-10/9-7-7-9b-9b-9b-9b-9b-7h9p7---7--------------------------9b--9b---------------------------|
|----------------------------------------------------------------9---9/7-5-7-5-7-7b-7b-7b-5-----------7/9-9-9/7-5-7p5-7p5------|
|-------------------------------------------------------------------------------------------7-----------------------------7-5--|
|------------------------------------------------------------------------------------------------------------------------------|

Well thats all I got for you enjoy you can figure out the rest for yourself.  For the intro if you use an amp it sounds real good.
later, deformed@mailcity.com e-mail me,*
Comments