Black Sabbath - Iron Man Chords & Tabs

 

Iron Man Chords & Tabs

Black Sabbath Chords & Tabs

Version: 23 Type: Tab 0 ratings
1 star 2 stars 3 stars 4 stars 5 stars
comments

Iron Man Tab

   
-----------------------------------------------------------------------------
			     Iron Man - Black Sabbath
-----------------------------------------------------------------------------
Tabbed by: M. J. Furman
Email: atomic_tide@hotmail.com

Tuning: Standard

Intro: Bend open low E by Pressing down on string behind the nut.

e|---------------------------------------------
B|---------------------------------------------
G|---------------------------------------------
D|-----7--7/9--9--12\11--12\11-12\11-7--7/9-9--
A|--9--5--5/7--7--10\9---10\9--10\9--5--5/7-7--
E|--7------------------------------------------  X2

e|-----------------------------------------|
B|-----------------------------------------|
G|-----------------------------------------|
D|-----------------5p4-5p4-5p4-------------|
A|--2--5--5/7--7~---------------5--5/7--7--|
E|-----------------------------------------|
  Has he lost his mind? Can he see or is he blind?

e|-----------------------------------------|
B|-----------------------------------------|
G|-----------------------------------------|
D|-----------------5p4-5p4-5p4-------------|
A|--2--5--5/7--7~---------------5--5/7--7--|
E|-----------------------------------------|
  Can he walk at all, or if he moves will he fall?

e|---------------------------------------------|
B|---------------------------------------------|
G|---------------------------------------------|
D|-----7--7/9--9--12\11--12\11-12\11-7--7/9-9--|
A|--9--5--5/7--7--10\9---10\9--10\9--5--5/7-7--|
E|--7------------------------------------------|

e|-----------------------------------------|
B|-----------------------------------------|
G|-----------------------------------------|
D|-----------------5p4-5p4-5p4-------------|
A|--2--5--5/7--7~---------------5--5/7--7--|
E|-----------------------------------------|
  Is he live or dead? Has he thoughts within his head?

e|-----------------------------------------|
B|-----------------------------------------|
G|-----------------------------------------|
D|-----------------5p4-5p4-5p4-------------|
A|--2--5--5/7--7~---------------5--5/7--7--|
E|-----------------------------------------|
  We'll just pass him there. Why should we even care?

e|-------------------------------------------
B|-------------------------------------------
G|-------------------------------------------
D|-------------------------------------------
A|----------5b-------------------------------
E|--6/7--7------7--6--5--5--5--0h4--5--5--6--  X2
    ^Play the 6 first time ONLY.

e|--------------------------|
B|--------------------------|
G|--------------------------|
D|--------------------------|
A|--------5-----------------|
E|--7--7-----7--6--5--5--5--|

e|---------------------------------------------
B|---------------------------------------------
G|---------------------------------------------
D|-----7--7/9--9--12\11--12\11-12\11-7--7/9-9--
A|--9--5--5/7--7--10\9---10\9--10\9--5--5/7-7--
E|--7------------------------------------------  X2

e|-----------------------------------------|
B|-----------------------------------------|
G|-----------------------------------------|
D|-----------------5p4-5p4-5p4-------------|
A|--2--5--5/7--7~---------------5--5/7--7--|
E|-----------------------------------------|
  He was turned to steel in the great magnetic field.

e|-----------------------------------------|
B|-----------------------------------------|
G|-----------------------------------------|
D|-----------------5p4-5p4-5p4-------------|
A|--2--5--5/7--7~---------------5--5/7--7--|
E|-----------------------------------------|
  When he travelled time for the future of mankind.

e|-----------------------|
B|-----------------------|
G|--------------------7--|
D|--9-----------------7--|
A|--7-----------------5--|
E|-----------------------|
    Nobody wants him, he just stares at the world.

e|--------------------------------------------------------------|
B|--------------------------------------------------------------|
G|--------------------------------------------------------------|
D|--------------------------7h8--9----------------------7h8--9--|
A|--9--9---------7--7h8--9----------9--9---------7--7h8---------|
E|--7--7--7--10---------------------7--7--7--10-----------------|

e|-----------------------------|
B|-----------------------------|
G|--------------------------7--|
D|--9-----------------------7--|
A|--7-----------------------5--|
E|-----------------------------|
    Planning his vengeance, that he will soon unfurl.

e|--------------------------------------------------------------|
B|--------------------------------------------------------------|
G|--------------------------------------------------------------|
D|--------------------------7h8--9----------------------7h8--9--|
A|--9--9---------7--7h8--9----------9--9---------7--7h8---------|
E|--7--7--7--10---------------------7--7--7--10-----------------|

e|-----------------------------------------|
B|-----------------------------------------|
G|-----------------------------------------|
D|-----------------5p4-5p4-5p4-------------|
A|--2--5--5/7--7~---------------5--5/7--7--|
E|-----------------------------------------|
  Now the time is here for Iron Man to spread fear.

e|-----------------------------------------|
B|-----------------------------------------|
G|-----------------------------------------|
D|-----------------5p4-5p4-5p4-------------|
A|--2--5--5/7--7~---------------5--5/7--7--|
E|-----------------------------------------|
  Vengeance from the grave kills the people he once saved.

e|-----------------------|
B|-----------------------|
G|--------------------7--|
D|--9-----------------7--|
A|--7-----------------5--|
E|-----------------------|
    Nobody wants him, they just turn their heads.

e|--------------------------------------------------------------|
B|--------------------------------------------------------------|
G|--------------------------------------------------------------|
D|--------------------------7h8--9----------------------7h8--9--|
A|--9--9---------7--7h8--9----------9--9---------7--7h8---------|
E|--7--7--7--10---------------------7--7--7--10-----------------|

e|------------------------------------------------------------------|
B|------------------------------------------------------------------|
G|------------------------------------------------------------------|
D|--11--9---------------------------11--9---------------------------|
A|---------11--10--9--7--------------------11--10--9--7-------------|
E|-----------------------7--7h9--9-----------------------7--7h9--9--|

SOLO:
e|----------------------------------------------------------------------
B|---------------------------------------------5-(5)---------5--5-------
G|----------------------------------4--4--4h6-----6--6p4-----------6p4--
D|-------2--2h4--4p2-----2--4--4/6------------------------6-------------
A|--2h4---------------4-------------------------------------------------
E|----------------------------------------------------------------------

--------------------------9-------------------------------------------
-----------------------9-----12p9------9------------------------------
-----4h6--6~--(9)--11--11----------11--9--9--9b---------------9--11b--
--6----------------------------------------------11--9--9h11----------
----------------------------------------------------------------------
----------------------------------------------------------------------
[ Tab from: http://www.guitartabs.cc/tabs/b/black_sabbath/iron_man_tab_ver_23.html ]
-----9---------------------------------------------9-------9------------
--9-----12p9--------9--12p9------9--12p9--------9-----12b-----12--9--9--
-(9)----------11p9-----------11-----------11p9--------12b---------------
------------------------------------------------------------------------
------------------------------------------------------------------------
------------------------------------------------------------------------

--12b13r12--12b13r12--9h12p9------9----------------9----------------9--
------------------------------12-----12--12~--12b-----12p9-------9-----
------------------------------------------------------------11b-(9)----
-----------------------------------------------------------------------
-----------------------------------------------------------------------
-----------------------------------------------------------------------

-------------------------------------------------------------------------
--12p9--------------------------------------------------------------(0)--
--------11--11p9------9--9------------------9--9------------------9------
------------------11--------11p9------9h11--------11p9------9h11---------
----------------------------------11--------------------11---------------
-------------------------------------------------------------------------

----------------------------------------------------------------------
----------------------------------------------------------------------
----------------------------------------------------------------------
--9h11--9h11--9h11-(11)-9h11--9h11--9h11--9h11--9h11--9h11-(11)-9h11--
----------------------------------------------------------------------
----------------------------------------------------------------------

------------|
------------|
------------|
9h11--9h11--|
------------|
------------|

e|------------------------------------------------------------------|
B|------------------------------------------------------------------|
G|------------------------------------------------------------------|
D|--11--9---------------------------11--9---------------------------|
A|---------11--10--9--7--------------------11--10--9--7-------------|
E|-----------------------7--7h9--9-----------------------7--7h9--9--|

e|--------------------------------------------------------------
B|--------------------------------------------------------------
G|--------------------------------------------------------------
D|--------------------------7h8--9----------------------7h8--9--
A|--9--9---------7--7h8--9----------9--9---------7--7h8---------
E|--7--7--7--10---------------------7--7--7--10-----------------  X2

e|---------------------------------------------
B|---------------------------------------------
G|---------------------------------------------
D|-----7--7/9--9--12\11--12\11-12\11-7--7/9-9--
A|--9--5--5/7--7--10\9---10\9--10\9--5--5/7-7--
E|--7------------------------------------------  X2

e|-----------------------------------------|
B|-----------------------------------------|
G|-----------------------------------------|
D|-----------------5p4-5p4-5p4-------------|
A|--2--5--5/7--7~---------------5--5/7--7--|
E|-----------------------------------------|
  Heavy boots of lead, fill his victims full of dread.

e|-----------------------------------------|
B|-----------------------------------------|
G|-----------------------------------------|
D|-----------------5p4-5p4-5p4-------------|
A|--2--5--5/7--7~---------------5--5/7--7--|
E|-----------------------------------------|
  Running as fast as they can, Iron Man lives again.

e|-----------------------------------------
B|-----------------------------------------
G|-----------------------------------------
D|-----------------------------------------
A|--------5b-------------------------------
E|--7--7------7--6--5--5--5--0h4--5--5--6--  X2

e|---------------------------------------------------------------|
B|---------------------------------------------------------------|
G|---------------------------------------------------------------|
D|---------------------------------------------------------------|
A|--------5------------------------------------------------------|
E|--7--7-----7--6--5--5--5-(5)~-(5)-0b-(0)-(0)-0b1r0-(0)-(0)-(0)-|

e|-----------------------------------------------
B|-----------------------------------------------
G|-----------------------------------------------
D|-------------------------4--5--4--5--4h5p4-----
A|--7p5--7~5h7p5~-7p5--7~--------------------5---
E|-----------------------------------------------  X2

                            bend 1.5 and release
                                 |   |   |
SOLO 2:                          *   *   *   
e|----------------------------------------------------------------------10--
B|---------------------------------------------------------8-----10/12------
G|------------------7------7--9--9b--9b--9b--7-----7h9-(9)----9-------------
D|-------5-----7/9----(9)-----------------------9---------------------------
A|--5/7-----7---------------------------------------------------------------
E|--------------------------------------------------------------------------
                                 |   |   |
                                 *   *   *
--10/12------------------------------------------------------------12b--
------------------------------------(0)-------------------------8-------
-------------------------7--7/9--9b--9b--9b--7--9--7h9--9~--9~----------
--------------5--7--7/9-------------------------------------------------
---------5/7------------------------------------------------------------
------------------------------------------------------------------------

--12b--12b13r12p10--12p10--10-------------------------------------------
-------------------------------12--12\10--8--/10--8---------------------
-----------------------------------------------------9--7---------------
-----------------------------------------------------------9\7--5--7p5--
------------------------------------------------------------------------
------------------------------------------------------------------------

-------------------------------------14b------------------------------
-------------------------------------17b--17b-17b18r17p15--17p15------
--------------------------7----7--9-------------------------------16--
-----5h7-------5--7--7/9----9-----------------------------------------
--7-------5h7---------------------------------------------------------
----------------------------------------------------------------------
                        |   |   |
                        *   *   *
--------------------------------------------------------------------------
--------------------------------------------------------------------------
--16\14--0--10\9--7--7--9b--9b--9b--9b--9b--7h9p7-----7-------------------
---------------------------------------------------9-----9\7--5--7--5--7--
--------------------------------------------------------------------------
--------------------------------------------------------------------------
         .5 note       |   |
            |          *   *
---------------------------------------------------------------
---------------------------------------------------------------
-----------------------9b--9b----------------------------------
--7b--7b--7b-r7--5-------------7/9--9--9\7--5--7p5--7p5--------
--------------------7------------------------------------7--5--
---------------------------------------------------------------
                                         Play 3X
||----------------------------------------------||---------|
||----------------------------------------------||---------|
||----------------------------------------------||---------|
||-----------------------4--5--4--5--4h5p4------||---------|
||7p5--7--5h7p5--7p5--7---------------------5--7||7--5--7--|
||----------------------------------------------||---------|


| /  slide up
| \  slide down
| h  hammer-on
| p  pull-off
| ~  vibrato
| +  harmonic
| x  Mute note
=============================================================================
Comments