Black Sabbath - Iron Man Chords & Tabs

 

Iron Man Chords & Tabs

Black Sabbath Chords & Tabs

Version: 20 Type: Tab 0 ratings
1 star 2 stars 3 stars 4 stars 5 stars
comments

Iron Man Tab

   
tabbed by:cory shaffer

i got this tab out of a black sabbath music tab book at sam goody's in
athens, ohio, so this tab is 100% correct.i couldn't remember the solo. my bad.


legend:
^:bend
h:hammer-on
/:slide to and strike note
~:vibrato

intro:
e------------------------------
b------------------------------
g------------------------------
d------------------------------
a------------------------------
E--3^1-------------------------   use a whammy bar

main riff:
e--------------------------------------------------
b--------------------------------------------------
g--------------------------------------------------
d--5/8---8/10--13/12--13/12--13/12--8-8/10---------
a--3/6---6/8---11/10--11/10--11/10--6-6/8----------
E--------------------------------------------------

verse:
e--------------------------------------------------
b--------------------------------------------------
g--------------------------------------------------
d---1-1/3~----6/5-6/5-6/5--1-1/3-------------------
a-3------------------------------------------------
E--------------------------------------------------

fill 1:first 2 times
e--------------------------------------------------
b--------------------------------------------------
g--------------------------------------------------
d-----1~-------------------------------------------
a-3-3----3-2-1-1-1---0--1-1-2----------------------
E------------------1-------------------------------
[ Tab from: http://www.guitartabs.cc/tabs/b/black_sabbath/iron_man_tab_ver_20.html ]
fill 1:3rd time
e--------------------------------------------------
b--------------------------------------------------
g--------------------------------------------------
d-----1~-------------------------------------------
a-3-3----3-2-1-1-1---------------------------------
E--------------------------------------------------


chorus:
e--------------------------------------------------
b--------------------------------------------------
g--5------3-----5--5-------------------3-4-5~------
d--3------1-----5--5-----3~---3-4-5~---------------
a---------------3--3--3-5--------------------------
E--------------------------------------------------

fill 2
e--------------------------------------------------
b--------------------------------------------------
g---7--5-------------------------------------------
d-----------7-6-5-3--------------------------------
a--------------------3-3h5-------------------------
E--------------------------------------------------


outro:4x
e--------------------------------------------------
b--------------------------------------------------
g-------------------------1-3-1-3-3b5rb3-----------
d---3-1-3~--3r1----3-1-3~--------------------------
a--------------3~----------------------------------
E--------------------------------------------------

end on:
d--3-1-3

order:
intro       3x 
main riff   2x
verse       2x
main riff   1x
verse       2x
fill 1      1x
main riff   2x
verse       2x
chorus      2x
main riff   2x
verse       2x
chorus      2x
fill 2      2x
chorus      4x (after solo)
main riff   2x
verse       2x
fill 1      1x
outro       1x   

any questions or comments can be sent to da_shaffmaster@hotmail.com
Comments