Black Sabbath - Iron Man Chords & Tabs

 

Iron Man Chords & Tabs

Black Sabbath Chords & Tabs

Version: 18 Type: Tab 0 ratings
1 star 2 stars 3 stars 4 stars 5 stars
comments

Iron Man Tab

Song: Iron Man Solos
Band: Black Sabbath
Tuning: Standard

This is my first Tab. Merry Christmas, e-mail me at sabbra_kadabra@hotmail.com

Solo 1

E|----------------------------------------------------------------------------||
B|----------------------------------------------------------------------------||
G|-----------------------------------9------------9-9-------------------------||
D|--------------------------9-9-9h11---11-11p9--------11p9----9h11-11-16-16^--||
A|-----7-7h9-9h7---7-9-9/11--------------------11----------11-----------------||
E|-7-9-----------9------------------------------------------------------------||

E|----------------------------------------------------------------------------||
B|-14---------------------------------------14--------------------------------||
G|-13-16p13----13------------------------------16-13-------13-16-13----13-16--||
D|----------16----14-14^-------------14-16^----------16-14----------16--------||
A|-----------------------16-14-14h16------------------------------------------||
E|----------------------------------------------------------------------------||

E|----------------------------------------------------------------------------||
B|-------------14-16^-14----------16^-16^^16--16^^16-16-14----14-----------14-||
G|-13-------13----17^----16-13-13--------------------------16----16-16^-16----||
D|----16-14-------------------------------------------------------------------||
A|----------------------------------------------------------------------------||
E|----------------------------------------------------------------------------||

E|----------------------------------------------------------------------------||
B|-------------14-------------------------------------------------------------||
G|-16-13----13----16-13-------------------------------------------------------||
D|-------16-------------16-16p14----14-14----------------14-14----------------||
A|-------------------------------16-------16p14----14h16-------16p14----14-16-||
E|----------------------------------------------16-------------------16-------||
[ Tab from: http://www.guitartabs.cc/tabs/b/black_sabbath/iron_man_tab_ver_18.html ]
E|------------------------------------------------------||
B|------------------------------------------------------||
G|------------------------------------------------------||
D|-14----------------------------11-9-------------------||
A|-14-16-14h16-14h16-14h16-14h16------11-10-9-7---------||
E|----------------------------------------------7-7/9-9-||

E|-----------------------------------------------||
B|-----------------------------------------------||
G|-----------------------------------------------||
D|-----------------------------------------------||
A|----------------------------9-10-9-10p9h10p9p0-||
E|-12p10-12-10h12p10-12h10-12--------------------||

Solo 2

E|------------------------------------------------------------||
B|------------------------------------------------------------||
G|------------------------------------------------------------||
D|-------------------12----12-14-14^^^-14^^^-14^^-12----12/14-||
A|-------10----12/14----14---------------------------14-------||
E|-11/12----12------------------------------------------------||

E|-------------------------------------------------------------------------||
B|-------------15-15h17-17^-17^-17^^-15-17p15---15-------------------------||
G|-12----14/16-------------------------------------16-16/14-12-15-12-------||
D|----14--------------------------------------17---------------------14-12-||
A|-------------------------------------------------------------------------||
E|-------------------------------------------------------------------------||

E|-------------------------------------------------------------------||
B|-------------------------------------------------------------------||
G|-------------------------------------------------------------------||
D|------------------------------------------12----12-14-14^^-14^^-14-||
A|-14/12-10-12p10----10h12------10-12-12/14----14--------------------||
E|----------------11-------9h11--------------------------------------||

E|-------------------------------------------------------------||
B|-------------------------------------------------------------||
G|-------------------------------------------------------------||
D|-14^-14^^-14p12----12----------------------------------------||
A|----------------14----14/12-10-12-10-12-12^^-12^^-12^^-10----||
E|----------------------------------------------------------11-||

Good luck at stuff.
Comments