Black Sabbath - Iron Man Chords & Tabs

 

Iron Man Chords & Tabs

Black Sabbath Chords & Tabs

Version: 17 Type: Tab 0 ratings
1 star 2 stars 3 stars 4 stars 5 stars
comments

Iron Man Tab

   
Too many naff versions of this song. This is 100% correct, how do i know? 
yes, i have the tab book. so please no 'this part is wrong you suck's. Can be played
in standard, but tuned a step down also sounds good.

Intro - bend 0/1 behind nut 

------------------------------------------
------------------------------------------
----2-2--4-4--7/6-7/6--2-2--4-4-----------
-4--0-0--2-2--5/4-5/4--0-0--2-2-----------
-2----------------------------------------
------------------------------------------ repeat

Verse
B5  D5  E5  G5  F#5  G5  F#5 G5 D5  E5

----------0--0--3h2--3h2--3h2--------0--0-
-0--3--3-----------------------3--3-------
------------------------------------------
------------------------------------------
------------------------------------------
------------------------------------------ x2

B5  D5  E5  G5  F#5  G5  F#5 G5 D5  E5

------------------------------------------
------------------------------------------
----2-2--4-4--7/6-7/6--2-2--4-4-----------
-4--0-0--2-2--5/4-5/4--0-0--2-2-----------
-2----------------------------------------
------------------------------------------ 

B5  D5  E5  G5  F#5  G5  F#5 G5 D5  E5

--------------------------------------------
--------------------------------------------
--------------------------------------------
--------0-----------------------------------
--2--2-----2--2--1---0---0---0-------0--0--1
-------------------------------0--4---------

B5  D5  E5  G5  F#5  G5  F#5 G5 D5  E5

------------------------------------------
------------------------------------------
------------------------------------------
--------0---------------------------------
--2--2-----2--2--1---0---0---0------------
------------------------------------------

B5  D5  E5  G5  F#5  G5  F#5 G5 D5  E5

------------------------------------------
------------------------------------------
----2-2--4-4--7/6-7/6--2-2--4-4-----------
-4--0-0--2-2--5/4-5/4--0-0--2-2-----------
-2----------------------------------------
------------------------------------------ 

B5  D5  E5  G5  F#5  G5  F#5 G5 D5  E5
[ Tab from: http://www.guitartabs.cc/tabs/b/black_sabbath/iron_man_tab_ver_17.html ]
------------------------------------------
------------------------------------------
----2-2--4-4--7/6-7/6--2-2--4-4-----------
-4--0-0--2-2--5/4-5/4--0-0--2-2-----------
-2----------------------------------------
------------------------------------------

-0--0--0--3h23--3h2--3h2--------0--0------
--------------------------3--3------------
------------------------------------------
------------------------------------------
------------------------------------------
------------------------------------------ x2

Bridge
E5                        D5
-----0--0--0--3--0-----2--2---2---0-------
--------------------------------------3---
------------------------------------------
-------------------0----------------------
------------------------------------------
-0----------------------------------------

B5
----------------------------------------------
-0--------------------------------------------
----------------------------------------------
---------------2-3-4--------------------2-3-4-
----0-2--2-3-4---------------0--2--2-3-4------
--2------------------2--2--2------------------
----------------------------------------------

E5                        D5
-----0--0--0--3--0-----2--2---2---0-------
--------------------------------------3---
------------------------------------------
-------------------0----------------------
------------------------------------------
-0----------------------------------------

B5
----------------------------------------------
-0--------------------------------------------
----------------------------------------------
---------------2-3-4--------------------2-3-4-
----0-2--2-3-4---------------0--2--2-3-4------
--2------------------2--2--2------------------
----------------------------------------------

--2--0------------------------------------
--------1--0------------------------------
---------------4-----2--------------------
------------------------2--2h4---4--------
------------------------------------------
------------------------------------------
------------------------------------------

----------------------------------------------
-0--------------------------------------------
----------------------------------------------
---------------2-3-4--------------------2-3-4-
----0-2--2-3-4---------------0--2--2-3-4------
--2------------------2--2--2------------------
----------------------------------------------

B5  D5  E5  G5  F#5  G5  F#5 G5 D5  E5

------------------------------------------
------------------------------------------
----2-2--4-4--7/6-7/6--2-2--4-4-----------
-4--0-0--2-2--5/4-5/4--0-0--2-2-----------
-2----------------------------------------
------------------------------------------ 

comments, death threats to 
clangerfreak@hotmail.com

~*jinxx*~
Comments