Black Sabbath - Iron Man Chords & Tabs

 

Iron Man Chords & Tabs

Black Sabbath Chords & Tabs

Version: 16 Type: Tab 0 ratings
1 star 2 stars 3 stars 4 stars 5 stars
comments

Iron Man Tab

This is exactly how the song is played .Some of the tabs are close, 
but just noticable. Please rate this and tell me what you think 
Do not do the last note of the slids, just slid only.
If you have any comments email me at xxtavixx@hotmail.com 
Dont bother sending me any corrections, this tab is 100% correct.

Intro
For the Intro hit the open E string (top string) and bend it behind 
the nut 3 times, let them ring


Fig 1
e:-----------------------------------------------
b:-----------------------------------------------
g:-----------------------------------------------
d:4/7-7/9-12\10-12\12-12\7-7/9-9-----------------
a:2/5-5/7-10\9--10\9--10\5-5/7-7-----------------
e:-------------------------------X\3-------------

Fig 2 (Verse)
e:-----------------------------------------------
b:-----------------------------------------------
g:-----------------------------------------------
d:----------5h4-5h4 5h4--------------------------
a:2-5-5h7-7-------------5/7-7/15\----------------
e:-----------------------------------------------

Fig 3 (Interlude 1)
e:-----------------------------------------------
b:-----------------------------------------------
g:-----------------------------------------------
d:-----------------------------------------------
a:-----5-----------------------------------------
e:-7-7---7-6-5-5-5-0h4-5-5-6-7-7-----------------

Fig 4 (Bridge)
e:-----------------------------------------------
b:-----------------------------------------------
g:----------------------2-3-4---------------2-3-4
d:9--7--4-4-----2-2-3-4-------4-4-----22-3-4-----
a:7--5--2-2-2-5---------------2-2-2-5------------
e:-----------------------------------------------

Fig 5 (Interlude 2)
e:-----------------------------------------------
b:-----------------------------------------------
g:-6-4----------------6-4------------------------
d:-----6-5-4-2------------6-5-4-2----------------
a:-------------2-2h4-4------------2--2h4 4-------
e:-----------------------------------------------

Solo 1
e:------------------------------------------------------------
b:---------------------------------5----------5-5-------------
g:-------------------------4-4-4h6---6--6p4-------6p4---4h6---
d:-----2-2h4-4p2---2-4-4/6------------------6---------6-------
a:-2-4-----------4--------------------------------------------
e:------------------------------------------------------------

e:-------------9-----------------------------------9-----------------
b:---------9^-----12p9-----9----------------------9--12h9----9-12h9--
g:-6---11-11^----------11--9-9-9h10----------9-11^------11h9---------
d:----------------------------------11-9-9h11------------------------
a:-------------------------------------------------------------------
e:-------------------------------------------------------------------

e:--------------9-12^---9-------12^--12^12^--12^-12-9h12p9-9---------
b:-9-9-12h9----9--12^-----12-9-9----------------------------12-12v---
g:---------11h9------------------------------------------------------
d:-------------------------------------------------------------------
a:-------------------------------------------------------------------
e:-------------------------------------------------------------------

e:----9---------9----------------------------------------------------
b:12^---12h9---9---12h9----------------------------------------------
g:----------11---------11-11p9---9-9-------------9-9--------------9--
d:---------------------------11-----11p9----9h11----11p9----9h11-9---
a:---------------------------------------11--------------11----------
e:-------------------------------------------------------------------
[ Tab from: http://www.guitartabs.cc/tabs/b/black_sabbath/iron_man_tab_ver_16.html ]
e:-------------------------------------------------------------------
b:-------------------------------------------------------------------
g:-------------------------------------------------------------------
d:----9h11-9h11-9h11-9h11-9h11-9h11-9h11-9h11-9h11-9h11-9h11-9h11----
a:-------------------------------------------------------------------
e:-------------------------------------------------------------------

Fig 6

e:----0^---------0^----
(let this two ring, to bend an open just put pressure on string behind the nut)

Fig 7 (Entrance to Second Solo)
e:-------------------------------------------------------------------
b:-------------------------------------------------------------------
g:-------------------------------------------------------------------
d:-------------------4-5-4-5-4h5p4--------------------4-5-4-5-4h5p4--
a:-7h5-7-5h7p5-7h5-7---------------57h5-7-5h7p5-7h5-7---------------5
e:-------------------------------------------------------------------

Solo 2
e:--------------------------------------------------10-10h12----------
b:----------------------------------------8---10/12-------------------
g:-------------7---7-9-9^-9^-9^--7---7h9----9-------------------------
d:-----5---7/9---9-----------------9----------------------------------
a:-5/7---7------------------------------------------------------------
e:--------------------------------------------------------------------

e:--------------------------------------------------------------------
b:-----------------------------------------5v----8--------------------
g:--------------7--7h9-9^-9^-9^-7--7-9-7h9----9v----------------------
d:-----5-7--7/9-------------------------------------------------------
a:-5h7----------------------------------------------------------------
e:--------------------------------------------------------------------

e:-12^-12^-12^-10---10-----------------------------------------------
b:----------------X----12-12\10-8/10-8-------------------------------
g:-------------------------------------9-7---------------------------
d:-----------------------------------------9\7-5-7h5---7p5-----5-7---
a:---------------------------------------------------7-----5h7-------
e:-------------------------------------------------------------------

e:--------------14^---------------------------------------------------
b:--------------17^--17^--17^--15--17h15------------------------------
g:-----7---7-9---------------------------16-16\14--0--10\9--7--7------
d:-7/9---9------------------------------------------------------------
a:--------------------------------------------------------------------
e:--------------------------------------------------------------------

Fig 8
e:--------------------------------------------------------------------
b:--------------------------------------------------------------------
g:-9^-9^-9^-9^-9^--7h9p7---7------------------------------------------
d:-----------------------9---9\7-5-7--5-7--7^-7^-7^--5----------------
a:------------------------------------------------------7-------------
e:--------------------------------------------------------------------

e:--------------------------------------------------------------------
b:--------------------------------------------------------------------
g:-9^-9^--------------------------------------------------------------
d:-------7/9--9--9\7--7h5--7p5----------------------------------------
a:------------------------------7--5----------------------------------
e:--------------------------------------------------------------------

Outro
e:----------------
b:----------------
g:----------------
d:----------------
a:---7---5--7-----
e:----------------



Okay, Now heres the order in which the song is played, I am pretty sure 
the order is right, everything else is right tho.

Intro
Fig 1 x2
Fig 2 x2
Fig 1 x1
Fig 2 x2
Fig 1 x1
Fig 2 x2
Fig 3 x3
Fig 1 x2
Fig 2 x2
Fig 4 x2
Fig 1 x2
Fig 2 x2
Fig 4 x2
Fig 5 x1
Solo 1
Fig 4 x2
Fig 1 x2
Fig 2 x2
Fig 3 x3
Fig 6 x1
Fig 7 x1
Solo 2
Fig 8 x1
Outro

---Andrew
Comments