Black Sabbath - Iron Man Chords & Tabs

 

Iron Man Chords & Tabs

Black Sabbath Chords & Tabs

Version: 8 Type: Bass Tab 0 ratings
1 star 2 stars 3 stars 4 stars 5 stars
comments

Iron Man Bass Tab

****************************************************************************
Black Sabbath - Iron Man
BASS TABS
bass4offbrand - Trying to make tabs right for the ppls @ my own pase...lol
****************************************************************************

Ok...i have listened to the song, and read the version 2 tabs, and they DO
NOT go with the song at some parts...here is the song according to me,
and i think it is pretty close if not exact...

*-* = play open to start (dont repeat it); ~ = ring

(begins with drum...after 1 time of guitar play this) 
G|--------------------------|    
D|--------------------------| x6
A|--*0*1-4-466-989898-4466--|
E|--------------------------|

-
G|------------------------|         G|-----------------------|
D|------------------------| x2      D|-----------------------|  x1
A|--1-1-4-1-0-------------|         A|--1-1-4-1-0------------|
E|------------44-333-4-5--|         E|-------------444-------|


G|--------------------------|    
D|--------------------------| x4 
A|---1-4-466-989898-4466----|
E|--------------------------|


G|---------------------------------------------|
D|----------------------678---------------678--| x2
A|--6~--4~--1-1-456-678-------1-1-456-678------|
E|---------------------------------------------|


G|--------------------------|    
D|--------------------------| x4 
A|---1-4-466-989898-4466----|
E|--------------------------|

[ Tab from: http://www.guitartabs.cc/tabs/b/black_sabbath/iron_man_btab_ver_8.html ]
G|---------------------------------------------|
D|----------------------678---------------678--| x2
A|--6~--4~--1-1-456-678-------1-1-456-678------|
E|---------------------------------------------|


G|--5-3----------------|
D|------5-3------------| x2
A|----------5-3-1-1-3--|
E|---------------------|


G|-----------------------|
D|-----------------------| x8 
A|--33333333-3/1/4/3/1/--|
E|-----------------------|


G|--5-3--------------|
D|------5-3----------| x2
A|----------5-3-113--|
E|-------------------|


G|-------------------------------------|
D|--------------678---------------678--| x2
A|--1-1-456-678-------1-1-456-678------|
E|-------------------------------------|


G|--------------------------|    
D|--------------------------| x4 
A|---1-4-466-989898-4466----|
E|--------------------------|


G|------------------------|         G|-----------------------|
D|------------------------| x2      D|-----------------------|  x1
A|--1-1-4-1-0-------------|         A|--1-1-4-1-0------------|
E|------------44-333-4-5--|         E|------------444--------|


(wait for steady guitar playing)
G|------------------|
D|------------------| x8
A|--6~--4~--3~--2~--|
E|------------------|


G|-----------------------|       G|-------------------------|     
D|-----------------------| x2    D|-------------------------| x1
A|--6~--4~--3~--8989--4--|       A|--6~--4~--3~--8989--4-6--|
E|-----------------------|       E|-------------------------|


****************************************************************************
Black Sabbath - Iron Man
BASS TABS
bass4offbrand - Trying to make tabs right for the ppls @ my own pase...lol
****************************************************************************
Comments