Black Sabbath - Iron Man Chords & Tabs

 

Iron Man Chords & Tabs

Black Sabbath Chords & Tabs

Version: 7 Type: Bass Tab 0 ratings
1 star 2 stars 3 stars 4 stars 5 stars
comments

Iron Man Bass Tab

Iron Man
Black Sabbath

All the tabs I've found aren't put together well, and generally suck. So i worked
hard and put together the tabbing for Iron Man the right way except the solos
aren't totally complete. 

Standard Tuning 

Intro:
Just guitar, wait for the first line, then bass and drums

Verse 1:
G:--------------------------------
D:--------------------------------
A:2/5-5-7-7--10-9-10-9-10--5-5-7-7	2
E:--------------------------------

Chorus:
G:---------------------------
D:---------------------------
A:----5----------------------	   2
E:7-7---7-6-5-5-5--0-4-5-5-6-

G:---------------
D:---------------
A:----5----------
E:7-7---7-6-5-5-5

Verse 1:
G:--------------------------------
D:--------------------------------
A:2/5-5-7-7--10-9-10-9-10--5-5-7-7	4
E:--------------------------------


Bridge
G:------------------------------
D:------------------------7-8-9-                
A:-7---5-----5-6-7--7-8-9-------
E:--------7-7-------------------

G:---------------------
D:----------------7-8-9
A:---5-6-7--7-8-9------
E:7-7------------------

G:------------------------------
D:------------------------7-8-9-                
A:-7---5-----5-6-7--7-8-9-------
E:--------7-7-------------------

G:---------------------
D:----------------7-8-9
A:---5-6-7--7-8-9------
E:7-7------------------



Verse 1:
G:--------------------------------
D:--------------------------------
A:2/5-5-7-7--10-9-10-9-10--5-5-7-7	4
E:--------------------------------
[ Tab from: http://www.guitartabs.cc/tabs/b/black_sabbath/iron_man_btab_ver_7.html ]
Bridge
G:------------------------------
D:------------------------7-8-9-                
A:-7---5-----5-6-7--7-8-9-------
E:--------7-7-------------------

G:---------------------
D:----------------7-8-9
A:---5-6-7--7-8-9------
E:7-7------------------

G:------------------------------
D:------------------------7-8-9-                
A:-7---5-----5-6-7--7-8-9-------
E:--------7-7-------------------

G:---------------------
D:----------------7-8-9
A:---5-6-7--7-8-9------
E:7-7------------------


Before Lead:
G:------------------------
D:-11-9-------------------
A:-----11-10-9--7---------	2
E:----------------0-7h9-9-

During Lead
G:-------------------------------------
D:-------------------------------------
A:-------------------------------------
E:-7-9-9-9-9-9-9-9-9-7-9-9-9-9 etc. . .

After lead
G:------------------------
D:-11-9-------------------
A:-----11-10-9--7---------	2
E:----------------0-7h9-9-

G:---------------------
D:----------------7-8-9
A:---5-6-7--7-8-9------	4
E:7-7------------------

Verse 1:
G:--------------------------------
D:--------------------------------
A:2/5-5-7-7--10-9-10-9-10--5-5-7-7	4
E:--------------------------------

G:---------------------------
D:---------------------------
A:----5----------------------	   2
E:7-7---7-6-5-5-5--0-4-5-5-6-

G:---------------
D:---------------
A:----5----------
E:7-7---7-6-5-5-5

Second Lead
G:------------------------------------------------
D:------------------------------------------------
A:-7-7-7-7-7--5-5-5-5-5-5--4-4-4-4-4-4--3-3-3-3-3-
E:------------------------------------------------
Comments