Black Sabbath - Iron Man Chords & Tabs

 

Iron Man Chords & Tabs

Black Sabbath Chords & Tabs

Version: 2 Type: Bass Tab 4 ratings
1 star 2 stars 3 stars 4 stars 5 stars
comments

Iron Man Bass Tab

               intro
-------------------------------------------
-------------------------------------------
-------------------------------------------
-------------------------------------------
------------5--5-7-7-10-9-10-9-10----------
---------7------------------------10-10-7-7


                  riff 1
------------------------------------------
------------------------------------------
------------------------------------------
------------------------------------------
-----------5------------------------------
-------7-7---7-6-5-5-5-0-4-5-6------------

[ Tab from: http://www.guitartabs.cc/tabs/b/black_sabbath/iron_man_btab_ver_2.html ]
                riff 2  
------------------------------------------
------------------------------------------
------------------------------------------
------------------------------------------
------------5-----------------------------
--------7-7---7-6-5-5-5-------------------

          chorus
-------------------------------------------
-------------------------------------------
-------------------------------------------
-------------------------------------------
-----------5-5-7-7--10-9-10-9-10-9-----55--
--------7--------------------------7-7-----

           riff 3
------------------------------------------
------------------------------------------
------------------------------------------
--------------------7-8-9-----------------
----------5-7-7-8-9-----------------------
----7-7-7---------------------------------  

listen for timing this song is easy and totaly kick ass
 if you know bass solo email me at SS1001@aol.com
Comments