Black Sabbath - I Am Legend Chords & Tabs

 

I Am Legend Chords & Tabs

Black Sabbath Chords & Tabs

Version: 1 Type: Tab 0 ratings
1 star 2 stars 3 stars 4 stars 5 stars
comments

I Am Legend Tab

   
          FROM THE ALBUM NO MORE TEAR- "NO MORE TEARS"
          -words & music by Ozzy Osborne, Zakk Wylde, Randy Castillo, Michael 
           Inez, John Purdell
          -transcription by Carl Culpepper
          -tabbed by Matt Seifert
          
          I AM LEGEND:
          ^^=vibrato
          H =hammer-on
          P =pull-off
          . =palm mute
          x =fret hand muting 
          ()=ghost note PH=pinch harmonic
          TR=trill
          / =slide up
          \ =slide down
          B =bend(assume full bend if not noted)
          
          drop D tuning, 1/2 step down 
          6=Db 3=Gb
          5=Ab 2=Bb
          4=Db 1=Eb
          
          intro (bass arranged for guitar)
          RIFF #1                             (w/slide) steady gliss(don't pick)
          -----||----------------------------||-(10)/(13)/(14)/------------------
          -----||----------------------------||-(10)/(13)/(14)/----(15)\(14)\----
          -----|.----------------------------.|------(13)/(14)/----(15)\(14)\----
          -----|.---------H---------H------H-.|----------------------------------
          ---H-||-------3-5-------3-5----3-5-||----------------------------------
          -3-5-||-0--0------0--0------0------||----------------------------------
          
          (w/slide)                          f^^^^^                        ^^^^^
          -----------------------------||----------------------------------------
          -----------------------------||----------------------------------------
          -(8)/(12)\(10)\----(3)/(10)--|.--5/7----/12\11/12\11-------------------
          -(8)/(12)\(10)\----(3)/(10)--|.--5/7------------------12-------\10-----
          -----------------------------||---------------------------12---\10-----
          -----------------------------||----------------------------------------
          (w/slide)               (no slide)
               ^^^^^   ^^         riff #2                                P.H.^^^
          ----------------/13\--||-----------------------------------------------
          ----------------/13\--||-----------------------------------------------
          --7/10----7/12--------.|-----------------------------------------------
          --7/10----7/12\-------.|--0-------0-3-0-/6--5-3-5-3---/6--------------0
          ----------------------||--0-------0-3-0-/6--5-3-5-3---/6--5-----------0
          ----------------------||--0-------0-3-0-/6--5-3-5-3-0-/6--5-3-5-3(PH)-0
                                            . . .     . . . . .
            ..is a crack in the sky.                                   ..blink of    
          
          (w/slide)                   ^^^^                riff #3 (no slide)
          ----------------------------------------------||-----------------------
          ----------------------------------------------||----------5------------
          --0/10-0--/13--12\10/12\10/13----12\10/12\10\-.|----------4------------
          --0/10-0--/13--12\10/12\10/13----12\10/12/10\-.|-0--------2------------
          ----------------------------------------------||-0--------2------------
          ----------------------------------------------||-0--0-0-0-2--0-0-0-0-0-
                                                          (PM). . .    . . . . .
          an eye                                             Your mamma told you
          
                                        tr^^^^^
          ----------------------------------------------------------------------
          ----6-------------------------TR------------------5----------------6--
          ----5------------3(3)--------353------------------4----------------5--
          ----3------------3(3)----3/5---------0------------2----------------3--
          ----3------------1(1)----------------0------------2----------------3--
          -00-3--0-0-0-0-0---------------------0--0-0-0-0-0-2--0-0-0-0-0--00-3--       
           ..    . . . . .                        . . . . .    . . . . .  ..
                   ...to talk to strangers.       Look in the mirror
                             
                                  (w/slide)steady gliss   (no slide at riff #4)
                            tr^^^^  ^^^^^              riff #4
          --------------------------------------/13\-||------------------------
          ------------------TR-----/9-----/10---/13\-||------------------------
          -----------3-----353----4/9----5/10--------|.---7----5----4----3-----
          -----------3--8---------4/9----5/10--------|.-0----0-----------3-----
          -----------1--8----------------------------||----------/5----5-------
          -0-0-0-0-0----8----------------------------||------------------------
           . . . . .
                                               No more tears.
          
          (3 times)
          ---------||
          ---------||
          ---------.|
          ---------.|
          -5-6-5-3-||
          -5-6-5-3-|| verse starts with riff #2,
           . . . .
          No more...
          
          
          Guitar Solo
             ^^^^^                     ^^         ^^^^^                   ^^^^^^
          ----------------------------------------------------------------------
          ----------------10---B(full)------------------B(full)----P---B--B(full) 
          --11----11--12------12------12--11--9--10----12-----(12)10--12-12-----
          ----------------------------------------------------------------------
          ----------------------------------------------------------------------
          ----------------------------------------------------------------------
          
          ^^^^^^     ^^^^              ^^^^^^^            ^^^^^^   B(full)   B
          -----------------------------B(full)-B(full)----B(1.5)--15(15)13--15--
          --B(full)---------------10--13------15(15)13---15---------------------
          -12(12)---11----11--12------------------------------------------------
          ----------------------------------------------------------------------
          ----------------------------------------------------------------------
          ----------------------------------------------------------------------
          
             B     B   B    B   B                 ^^^^
          --15----15--15---15--15(15)13-14----x---B---10-----------10--B--------
          ---------------------------------15-x--13------13-10--B-----12(12)----
          -----------------------------------------------------12--------10-----
          ------------------------------------------------------------------12--
          ----------------------------------------------------------------------
          ----------------------------------------------------------------------
          
                                                          ^^^^^
          ---------B(.25)-------------------------------------------------------
          -12-----10--------------P--P--------12----10-------------P--P------12-
          -12-----10------------13-12-10------12----10B(.5)------13-12-10----12-
          ----12-----12-10---12----------12------12------12---------------12----
          ----------------------------------------------------------------------
          ----------------------------------------------------------------------
          
                                           ^^^^^                      (.25)
          ---------------------------------B----10---P--------10---P---B--
          ------------12----10------------13-------13-10--B------13-10-8--
          -12-10------12----10B(.5)----------------------12---------------
          -------12------12---------12-10---------------------------------
          ----------------------------------------------------------------
          ----------------------------------------------------------------
          
                                     B    B                   B(.5) B    B(.5) B
          --------------------------15---15(15)--13----15----13----15---13----15
          -10--B---P-------------------------------(15)--(15)--(15)--(15)---(15)
          ----12(12)10---12-10--------------------------------------------------
          ---------------------12-----------------------------------------------
          ----------------------------------------------------------------------
          ----------------------------------------------------------------------
          
            B      B(.5) ^^^^^       
          -15(15)-13-----------13-10-13-10-------13-10-13-10-------13-10-13-10-----
          --------------15----------------13-10-------------13-10-------------13-10
          -------------------------------------------------------------------------
          -------------------------------------------------------------------------
          -------------------------------------------------------------------------
          -------------------------------------------------------------------------
          
          
          -13-10-13-10-------15-13-15-13-------15-13-15-13-------15-13-15-13------       
          ------------13-10-------------15-13-------------15-13-------------15-13-
          ------------------------------------------------------------------------
          ------------------------------------------------------------------------
          ------------------------------------------------------------------------
          ------------------------------------------------------------------------
          
          
          -15-13-15-13-------17-15-17-15-------17-15-17-15-------17-15-17-15------
          ------------15-13-------------18-15-------------18-15-------------18-15-
          ------------------------------------------------------------------------
          ------------------------------------------------------------------------
          ------------------------------------------------------------------------
          ------------------------------------------------------------------------
          
          
          -17-15-17-15-------18-15-13--18-15-13--18-15-13--18-15-13--20-17-15---
          ------------18-15----------15--------15--------15--------15--------17-
          ----------------------------------------------------------------------
          ----------------------------------------------------------------------
          ----------------------------------------------------------------------
          ----------------------------------------------------------------------
          
                                          B^^^
          -20-17-15--20-17-15--20-17-15--20---(20)\-----------------------------
          ---------17--------17--------17---------------------------------------
          ----------------------------------------------------------------------
          ----------------------------------------------------------------------
          ----------------------------------------------------------------------
          ----------------------------------------------------------------------
          
          fill before returning to riff #2
          (w/slide)
              ^^^^                       ^^^^    ^^^^^
          ----------------------------------------------------/15\-------------
          ---(7)---8\7--8--(8)\7------------------------------/15\(SHAKE SLIDE)
          --5/7-------------------7-----\5--(5)/10------9/12-------------------
          --5/7----------------------7--\5--(5)/10------9/12-------------------
          ---------------------------------------------------------------------
          ---------------------------------------------------------------------
[ Tab from: http://www.guitartabs.cc/tabs/b/black_sabbath/i_am_legend_tab.html ]
Comments