Black Sabbath - Hole In The Sky Chords & Tabs

 

Hole In The Sky Chords & Tabs

Black Sabbath Chords & Tabs

Version: 2 Type: Tab

Hole In The Sky Tab

Band-Black Sabbath
Song-Hole In The Sky
Album-Sabotage

One of Sabbaths classics off of there 5th album 1975's Sabotage, great song!

tune down 1 1/2

Verse
|-------------------------------------| |------|
|-------------------------------------| |------|
|--------------------------------5--7-| |-7--5-|
|-----7p5-7~~---7p5-7~~---7p5----5--7-| |-7--5-|
|-0-0---------0---------0-----0--3--5-| |-5--3-|
|-------------------------------------| |------|

Interlude
|------------------------|
|------------------------|
|-----5^-5---------------|
|----------5^-5----------|
|-0-0-----------5^-5--5/-|
|------------------------|

Chorus
|---------------------------------------------------| |-------------|
|--9---9p8-----9---9p8----11--11p10----11--11p10----| |-------------|
|-10--10p8----10--10p8----12--12p10----12--12p10----| |-------------|
|----------10----------10-----------10-----------10-| |-10-10-10--9-|
|---------------------------------------------------| |-10-10-10--9-|
|---------------------------------------------------| |--8--8--8--7-|

solo
|--------------------------------------------------------|
|--------------------------------------------------------|
|--7^-7^-7^------7p5-7-7^-7^-7^------7p5---^7-^7-^7-5----|
|----------------------------------------7------------7--|
|--------------------------------------------------------|
|--------------------------------------------------------|
[ Tab from: http://www.guitartabs.cc/tabs/b/black_sabbath/hole_in_the_sky_tab_ver_2.html ]
|-------5------5------5-------------------------8-10^----|
|-----5------5------5---8^-8^-8^-8^--------8-10----------|
|--7^-----7^-----7^--------------------------------------|
|--------------------------------------------------------|
|--------------------------------------------------------|
|--------------------------------------------------------|

|------8-^10-8------8-10^-10^-10^-8-10-8---------8-10^10^10^-^10-8-|
|-8-10---------8-10-------------------------8-10-------------------|
|------------------------------------------------------------------|
|------------------------------------------------------------------|
|------------------------------------------------------------------|
|------------------------------------------------------------------|

|----13^13^13^13^13^13^13^13^13^13^13^13^-13^-13^-13-10--------------|
|-10-----------------------------------------------------13\12-10----|
|--------------------------------------------------------------------|
|--------------------------------------------------------------------|
|--------------------------------------------------------------------|
|--------------------------------------------------------------------|

|-19^19^19^^17-15h17-15h17-17p15-----|
|------------------------------------|
|--------------------------------14--|
|------------------------------------|
|------------------------------------|
|------------------------------------|
I can't take credit for the solo, I wrote it down on some papers a while ago and I don't 
were I got it.

Here are all the riffs and the solo and I think you all can figure the orders it is 
in. Hope you like.