Black Sabbath - Heaven And Hell Chords & Tabs

 

Heaven And Hell Chords & Tabs

Black Sabbath Chords & Tabs

Version: 1 Type: Bass Tab 0 ratings
1 star 2 stars 3 stars 4 stars 5 stars
comments

Heaven And Hell Bass Tab

from - Michael James 

Heaven And Hell - Bass
Black Sabbath - Heaven And Hell


|-----------------------------------------------9-7-----------------
|-------------------------------------7-------------9-7-------------
|-7----9-10-----------------7----9-10---10p9-7----------10-9-7------
|-----------8--10--10-10-10-----------------------------------------

Verse:
|------------------------------------------------------7h9--------
|--------------------------------------------------7h9------------
|-7--7-7-7--7-7-7--7-7-7--7-7-7--7-7-7--7-7-7--7-7----------------
|-----------------------------------------------------------------

|--------------------------------------------------------------------
|--------------------------------------------------------------------
|-7-7-10-9-7---------------10-9-7--------------7-7-7-7--7-7-7--7-7-7-
|------------10-8--8---8----------8-10--10--10-----------------------

|-----------7h9\---------------------7---7-----------------------------
|---5-7-----------------------5-6-7----7---7-5----7-8-9--9--9--10-9----
|-7---------------5----5---5-------------------------------------------
|-------------------------------------------------------------------10-
[ Tab from: http://www.guitartabs.cc/tabs/b/black_sabbath/heaven_and_hell_btab.html ]
|------------------------------------------------------------
|------------------------------------------------------------
|-12---12----12---12-----7-7-7--7-7-7--7-7-7---7-7-7---7-7-7-
|------------------------------------------------------------

****double time****
|----------------------------------------------------------
|----------------------------------------------------------
|-5h7-5h7-5h7-5h7-5h7-5h7-5h7-5h7-5h7-5h7-5h7-5h7-5h7-5h7--
|----------------------------------------------------------

|----------------------------------------------------------------------
|----------------------------------------------------------------------
|-7-7-7-7--7-7-7--9--9-9-9--9-9-9--10--10-10-10--10-10-10--12--12-12-12
|----------------------------------------------------------------------

|-14-12-11-12-11-12-11-------------------------------------
|----------------------12----------------------------------
|-------------------------7--7-7-7-7-7--9-9-9-9-9-9-9-9----
|----------------------------------------------------------

|-----------------------------12-11-9-11-------------------
|----------------------------------------------------------
|-7-7-7-7-7-7-7-7-9-9-9-9-9-9-----------10-10-10-10-12-12-12
|----------------------------------------------------------and so on...

Comments