Black Sabbath - Hand Of Doom Chords & Tabs

 

Hand Of Doom Chords & Tabs

Black Sabbath Chords & Tabs

Version: 5 Type: Tab 0 ratings
1 star 2 stars 3 stars 4 stars 5 stars
comments

Hand Of Doom Tab

                         Tabbed by: Speedy D
                         Tabbed: 11/21/04
                         Band: Black Sabbath
                         Song: Hand Of Doom


Tableture Legend:
h-hammer on
p-pull off
m-palm mute
~-tremelo

I am pretty sure that this is right
                                                  
|-------------------------|-------------------------|
|-------------------------|------------7~~~---------|(overdubbed)
|-------------------------|-------------------------|  
|-------------------------|-------------------------|
|-3h5-5-5-5-5-5-----------|---3h5-5-5-5-5-5---------|
|---------------3-4-5-----|-----------------3-4-5---|

|--------10---------------|(overdubbed)
|--------13~~~------------|(overdubbed)
|-------------------------|
|-------------------------|
|--3h5-5-5-5-5-5----------|
|----------------3-4-5----|

|-------------------------|
|-------------------------|
|--5m-5m-5m-5m-3-3--8-7---| Riff 1
|-5m-5m-5m-5m--3-3--8-7---|
|3m-3m-3m-3m---1-1--6-5---|
|-------------------------|
[ Tab from: http://www.guitartabs.cc/tabs/b/black_sabbath/hand_of_doom_tab_ver_5.html ]
|-------------------------|
|-------------6-----------|
|--5-8-7------5--5-3-5----| Riff 2
|--5-8-7--8---3--5-3-5----|
|--3-6-5--8------3-1-3----|
|---------6---------------|

|----------------------|
|----------------------|
|--5--8--10--12--------| Riff 3
|--5--8--10--12--------|
|--3--6--8---10--------|
|----------------------|

|----------------------|
|----------------------|
|-6-5m-5m-5m-5m-5m-5m--| Riff 4
|-6-5m-5m-5m-5m-5m-5m--|
|-4-3m-3m-3m-3m-3m-3m--|
|----------------------|

 Solo

|------------------------------------------------------|
|------------------------------------------------------|
|---7h8p7~~~--7-8h10p8-7-------------------------------|
|-------------------------8p7----8p7----8p7------------|
|-----------------------------10-----10-----10---------|
|------------------------------------------------------|

|---------------------------------------------|
|---------------------------------------------|
|------------7h8-10p8h10----------------------| See the Pattern? All the song
|---7-8h10-8-------------8p7----8p7----8p7----| is, is 7,8, and 10 on the
|---------------------------------------------| D,G, and B strings. It's just
|---------------------------------------------| like Rat Salad. 


This piece is pretty easy. Good for a beginner.
Comments