Black Sabbath - Hand Of Doom Chords & Tabs

 

Hand Of Doom Chords & Tabs

Black Sabbath Chords & Tabs

Version: 4 Type: Tab 0 ratings
1 star 2 stars 3 stars 4 stars 5 stars
comments

Hand Of Doom Tab

Tabbed by: poWerChrd1234

LISTEN TO SONG FOR TIMINGS, ETC...

Tuning: Standard

Bass Riff- Even though this is a bass note, you can still play if you want..
*NOTE THERE ARE PROB 5 OTHER WAYS TO PLAY THIS BASS RIFF
e|------------------------------------------------------|
B|------------------------------------------------------|
G|------------------------------------------------------|
D|------------------------------------------------------|
A|------------------------------------------------------|
E|--8-10-10-10-10----3-4-5------------------------------|

Intro/Verse 1+2+3 - Guitar parts comes in on 3rd fret- 2X
e|--------------------------------------------------------------|    2X
B|--------------------------------------------------------------|
G|------------------------------------------------------19b19---|
D|--5-6-7--10-12-12-12-12--12b12--5-6-7--10-12-12-12-12---------|
A|--5-6-7--10-12-12-12-12---------5-6-7--10-12-12-12-12---------|
E|--3-4-5--8--10-10-10-10---------3-4-5--8--10-10-10-10---------|


Interlude- Play 3x- Playin some of these parts, you want to slide the bar chords....
e|--------------------------------------------------------------|
B|--------------------------------------------------------------|--- 3x
G|-------------------------------4x-------------------------8x--|
D|-10-10-10-10-10-10---8--13-12-----10-13-12-8-15-10-8-8-10-----|
A|-10-10-10-10-10-10---8--13-12-----10-13-12-8-15-10-8-8-10-----|
E|--8-8--8--8--8--8----6--11-10-----8--11-10-6-13-8--6-6-8------|

THEN
[ Tab from: http://www.guitartabs.cc/tabs/b/black_sabbath/hand_of_doom_tab_ver_4.html ]
Interlude Cont'
e|--------------------------------------------------------------|
B|--------------------------------------------------------------|
G|--------------------------------------------------------------|
D|--10-13-15-17--------------3x----------------------10x--------|
A|--10-13-15-17-------------------11-10-------------------------|
E|--8--11-13-15s14s13s12s11-------9--8-8-8-8-8-8-8-8------------|

Interlude Cont' into solo, the guitarist is a pentaonic guitarist, so just have
fun soloing it, I'm not goin to bother to work on the solo, guys that have been
playing for a long time should pick it up in a half hour.
IT SOUNDS LIKE IN THE SOLO HE PLAYS IN THE 20TH FRET, ONLY PROBLEM MY GUITAR
DOESNT HAVE A 20TH FRET....
e|--------------------------------------------------------------|
B|--------------------------------------------------------------|
G|----------------------------3x---solo-------------?-----------|
D|-10-10-10-10-10-10-8-13-12------13b12--12-13-15---?-----------|
A|-10-10-10-10-10-10-8-13-12------------------------?-----------|
E|--8-8--8--8--8--8--6-11-10------------------------?-----------|

End of Interlude
e|--------------------------------------------------------------|
B|--------------------------------------------------------------|
G|-----------------2x-------------------------------------------|
D|--10--8---5---------------------------------------------------|
A|--10--8---5---------------------------------------------------|
E|--8---6---3---------------------------------------------------|

END WITH VERSES, then BASS RIFF

Thats all she wrote, if anyone knows the solo to this song, please send it to me,
keithistheman84@hotmail.com.  Everything else should be pretty much rite..

-Keith
Comments