Black Sabbath - Fairies Wear Boots Chords & Tabs

 

Fairies Wear Boots Chords & Tabs

Black Sabbath Chords & Tabs

Version: 2 Type: Tab 4 ratings
1 star 2 stars 3 stars 4 stars 5 stars
comments

Fairies Wear Boots Tab

Black Sabbath
Fairies Wear Boots

Black Sabbath and Fairies Wear Boots Info:
Length 6:13
Produced by Frank Iommi, John Osborne, Terence Butler, and William Ward.


S=slur

Intro 0:00
---------------------------------------------------------------------------------------------------------------------------------
---------------------------------------------------------------------------------------------------------------------------------
----------3---------------3---------------------------3---------------3-----------------------3---------------3---------------
-------3-----5--5-----3-----5----5—3s5--------3-----5--5-----3-----5--5s3--------3-----5--5-----3-----5---5---3s5--
----5---------------5---------------------------5---------------5----------------------5---------------5----------------------
3--------------------------------------------3---------------------------------------3------------------------------------------


Naked Licks 0:14
--------------------------------------------------------------------------------------------------------------------------------
----1—1s0-----0-------------------------1—1s0-----0----------------------------------1s0-----0-------------------------
2-------------2-----2s0—0s2—0s2---------------2-------2s0—0s2--0s2---------0--------2------2s0—0s2--0s2-----
-----------------------------------------------------------------------------------0s2------------------------------------------
---------------------------------------------------------------------------------------------------------------------------------
---------------------------------------------------------------------------------------------------------------------------------
[ Tab from: http://www.guitartabs.cc/tabs/b/black_sabbath/fairies_wear_boots_tab_ver_2.html ]
Opening Riff 1:15
----------------3----------------------------------3--------------------------------3--------------------------------3---------
----------------3----------------------------------3--------------------------------3--------------------------------3---------
----------------3----------------------------------3--------------------------------3--------------------------------3---------
----------------3----------------------------------3--------------------------------3--------------------------------3---------
5----8----5----------3----5----5----8-----5----------3----5----5----8-----5----------3----5----5----8----5--------------
3----6----3----------1----3----3----6-----3----------1----3----3----6-----3----------1----3----3----6----3----------3---

Solo Intro 2:40

--------------------------------------------------------------------------------------------------------------------------------
--------------------------------------------------------------------------------------------------------------------------------
--------------------------------------------------------------------------------------------------------------------------------
3s5-------3s5---------------------------------------------3-------------------------------------------------------------------
-------------------------------------------3s5---------------------------5-----------------------------------------------------
--------------------------------------------------------------------------------------3sssssssssssss(3)-----------------------

Triplet Outro 5:42 (repeat 4 times until end)
5----6---------5---------------5----6---------5----------------5----6---------5---------------5----6---------5-------------
-----------8---------6----8---------------8---------6----8----------------8---------6----8---------------8---------6----8--
---------------------------------------------------------------------------------------------------------------------------------
---------------------------------------------------------------------------------------------------------------------------------
---------------------------------------------------------------------------------------------------------------------------------
---------------------------------------------------------------------------------------------------------------------------------

Hello Black Sabbath fans!  This is my first tab so please feedback so I can improve and make my newer tabs better.  Thanks.
Comments