Black Sabbath - Evil Woman Chords & Tabs

 

Black Sabbath Chords & Tabs

Version: 1 Type: Tab 0 ratings
1 star 2 stars 3 stars 4 stars 5 stars
comments

Evil Woman Tab

Band: Black Sabbath
Record: Black Sabbath (self titled)
Tabbed By: GuitarWizard666
after the thingy at the beginning

/ = slide up
\ = slide down

[ Tab from: http://www.guitartabs.cc/tabs/b/black_sabbath/evil_woman_tab.html ]
E----------------------------
B----------------------------
G----------------------------
D----------------------------
A-3/5--3/5--3/5--3/5---------
E1/3--1/3--1/3--1/3----------

keep repeating that and during the chorus its

E----------------------
B----------------------
G----------------------
D---77--55------------- 
A--55--33--55--77------
E---------33--55-------

i think thats it, it's pretty easy, listen to the song a couple of times
to get the timing right
Comments