Black Sabbath - Electric Funeral Chords & Tabs

 

Electric Funeral Chords & Tabs

Black Sabbath Chords & Tabs

Version: 9 Type: Tab 1 rating
1 star 2 stars 3 stars 4 stars 5 stars
comments

Electric Funeral Tab

riff1

|------------------------|
|------------------------|
|------------------------|
|------h-----------------|                                                /
|-----2-3-2-------h------|             4 times                           /
|-0-0---------0-2-3-2----|                                              /
                                                                       /
                                                                      /
Song riff                                                             \
                                                                       \
|-------------------|                                                   \
|-------------------|                                                    \
|-------------------|                                                     \
|-------------------|               8 times         (then start with riff 1) 
|-----2----1----0---|
|-0--------------3--|

[ Tab from: http://www.guitartabs.cc/tabs/b/black_sabbath/electric_funeral_tab_ver_9.html ]
|--------------|------------12--12--12--12--12--|-----------12--12--12-
|--------------|------------12--12--12--12--12--|-----------12--12--12-
|--------------|------------12--12--12--12--12--|-----------12--12--12-
|--------------|--------------------------------|----------------------
|---14-13-12---|--14-12-14----------------------|-14-12-14-------------      
|---12-11-10---|--12-10-12----------------------|-12-10-12-------------
                                                                


Riff3
|-------------------|---------------------|---------------
|-------------------|---------------------|---------------
|----12-14-12-14^---|----12-14-14^-12-----|---------------
|-14----------------|-14--------------14--|---------------
|-------------------|---------------------|---------------
|-------------------|---------------------|---------------



riff4
(that part when Ozzy goes: Electric funeral!!)
|-----)---)---)---)---|
|---16--16--16--16----|
|---------------------|
|---------------------|
|---------------------|
|---------------------|



riff5
|--------------------------|
|--------------------------|
|--------------------------|
|-12--12--12—-14---/18\14--|
|--------------------------|
|--------------------------|

Then Start Over.....

This is a GREAT tab for begginers.....I liked learnin this song.....LATER!
Comments