Black Sabbath - Electric Funeral Chords & Tabs

 

Electric Funeral Chords & Tabs

Black Sabbath Chords & Tabs

Version: 8 Type: Tab 0 ratings
1 star 2 stars 3 stars 4 stars 5 stars
comments

Electric Funeral Tab

Subject: Black Sabbath's "Electric Funeral" - Corrected Guitar Tabs
Date: June 12th 2006
From: lina.inverse@gmail.com (Victoria J. Tanski)

Notes:
I'm trying not to make this complicated but it is, considering it's black 
sabbath. Listen to the song while playing. Figures are chronological, 
subjective and done by ear (so keep that into consideration). Have Fun ;)

Standard Tuning [EADGBe]

   KEY
h  = hammer on
p  = pull off
~  = vibrato
/  = slide up
\  = slide down
X  = muted/unfretted
*\ = pick slide down
*/ = pick slide up
U  = bend up
n  = bend release
u  = unvalued bend [bend string a bit, not enough to change pitch by a
     1/2 step]
\u = unvalued slide down
/u = unvalued slide up
() = notes in parentheses indicate that they either have little value,
     are optional or pass by quickly.

[bend example --> "14U16" means to bend at the 14th fret up to what
 sounds like the 16th fret (but it is technically different considering
 it's bent -to- not fretted -at- the 16th) ---- on the other hand 
 "[14U16]" means that the value of what's played is a note that's already
 bent to 16, as opposed to hearing the bend itself in the phrase, also 
 known as a 'pre-bend' ] 

--rhythm pattern--
v = down pick
^ = up pick
~ = hold/sustain picked note(s)

-------------------------------------------------------------------------
                           Black Sabbath
                         "Electric Funeral"
                      From the album "Paranoid"
-------------------------------------------------------------------------

   Figure 1
e||----------------------------||
B||----------------------------||
G||----------------------------||
D||----------------------------||
A||--------2h3p2~~~------------||
E||---0-0-----------0-2h3p2~~~-||
[ Tab from: http://www.guitartabs.cc/tabs/b/black_sabbath/electric_funeral_tab_ver_8.html ]
    Figure .5 (optional/used occasionally, throw in when you don't want to
               do palm mutes on figure 2)
||----------------------------||
||----------------------------||
||----------------------------||
||----------------------------||
||----2~~~--1-----0-----------||
||-0-----------------3~~~-----||

   Figure 2 (used mainly)
||----------------------------||
||----------------------------||
||----------------------------||
||----------------------------||
||-------2~~~--1---0----------||
||--XXXX--------------3~~~----||

   Figure 3
||----------------------------||
||----------------------------||
||----------------------------||
||----------------------------||
||----14\13\12~~~-------------||
||----12\11\10~~~-------------||

   Figure 4
     v~ v~ v~~|   vv v^ v^
||------------|-X-------------||
||------------|-12------------||
||------------|-12------------||
||------------|-12------------||
||--14\12/14--|-X-------------||
||--12\10/12--|-X-------------||

  Figure 5 [phrase 1 & 2 ]
||----------------------------|----------------------------||
||----------------------------|----------------------------||
||----12--14-12-[14U16~~]-----|-----12-14--[14U16]-14------||
||--14------------------------|---14-----------------14----||
||----------------------------|----------------------------||
||----------------------------|----------------------------||

   Figure 6
||----------------------------||
||---15U17~~\u----------------||
||----------------------------||
||----------------------------||
||----------------------------||
||----------------------------||

   Figure 7
||----------------------------||
||--7-7-7/-9~-(u/14\u)--------||
||--5-5-5/-7~-(u/12\u)--------||
||----------------------------||
||----------------------------||
||----------------------------||

-------------------------------------------------------------------------
Figure Map

fig 1 x4
fig 2 x8
fig 1 x4
fig 2 x8
fig 1 x4
fig 3 x5
fig 4 x4
fig 5 x2
fig 4 x4
fig 5 x2
fig 6 x4
fig 7 x3
fig 1 x4
fig 2 x8
fig 1 x4
fig 2 x8+ (play until you want to end the song)
Comments