Black Sabbath - Electric Funeral Chords & Tabs

 

Electric Funeral Chords & Tabs

Black Sabbath Chords & Tabs

Version: 4 Type: Tab 8 ratings
1 star 2 stars 3 stars 4 stars 5 stars
comments

Electric Funeral Tab

Electric Funeral
Black Sabbath (Paranoid)

-->Tabed and transcribed by Gustav Cederlof  
<  p = Pull off           \ = Slide down  >  
<  ~ = Vibrato            ^ = Bend        >  
  


Riff 1
E||----------------------------------------||
B||----------------------------------------||
G||----------------------------------------||
D||----------------------------------------||
A||----------2h3--2~~~---------------------||
E||----0--0-------------0--2h3--2~~~-------||


Riff 2
E||------------------------------||
B||------------------------------||
G||------------------------------||
D||------------------------------||
A||-------2~~~--1~~~--0----------||
E||----0-----------------3-------||


Riff 3
E||------------------||
B||------------------||
G||------------------||
D||----7--6--5-------||
A||----7--6--5-------||
E||----7--6--5-------||


Riff 4
E||----------------12--12--12--12--12-------||
B||----------------12--12--12--12--12-------||
G||----------------12--12--12--12--12-------||
D||-----------------------------------------||
A||-----------------------------------------||
E||----12--10--12---------------------------||


Riff 5
E||---------------------------------------------------||
B||--------------------13------------13---------------||
G||----12--15--12--15--------12--15------15--12-------||
D||---------------------------------------------------||
A||---------------------------------------------------||
E||---------------------------------------------------||

[ Tab from: http://www.guitartabs.cc/tabs/b/black_sabbath/electric_funeral_tab_ver_4.html ]
Riff 6
E||---------------------------------------------------||
B||---------------------------------------------------||
G||----17--17--17--17--17----17--17--17--17--17-------||
D||----15--15--15--15--15----15--15--15--15--15-------||
A||---------------------------------------------------||
E||---------------------------------------------------||


Riff 7
E||---------------------------------------------------------||
B||---------------------------------------------------------||
G||----7--7--7--9/(15)---7--7--7--9/(15)---7--7--7--9-------||
D||---------------------------------------------------------||
A||---------------------------------------------------------||
E||---------------------------------------------------------||



Riff 1   x4

Riff 2
Reflects in the sky,
Warn you you're gonna die.
Storm coming you better hide,
From the atomic tide.

Flashes in the sky,
Turns houses into sty.
Turns people into clay,
Radiation minds decay.

Riff 1  x4

Riff 2
Robot minds of robot slaves,
Lead men to atomic rage.
Plastic flowers melt in sun,
Fading moon falls upon.

Dying worlds of radiation,
Victims of mad frustration.
Burning global poxy fire,
Like electric funeral pyre.

Riff 1  x4
Riff 3  x5
Riff 4  x4

Riff 5
Buildings crashing down,
To a cracking ground.
Rivers turn to wood,
Ice melt into blood.

Riff 4  x4

Riff 5
Earth lies in death bed,
Clouds cry water dead.
Tearing life away,
Here's the burning pay.

Riff 6
ELECTRIC FUNERAL
ELECTRIC FUNERAL
ELECTRIC FUNERAL
ELECTRIC FUNERAL

Riff 7  x4
Riff 1  x4

Riff 2
And so in the sky,
Shines the electric eye.
Supernatural king,
Takes earth under his wing.

Heaven's golden chorus sings,
Hell's angels black their wings.
Evil souls fall to hell,
Ever trapped in burning cell'.

Riff 1  fadeout
Comments