Black Sabbath - Electric Funeral Chords & Tabs

 

Electric Funeral Chords & Tabs

Black Sabbath Chords & Tabs

Version: 11 Type: Tab 0 ratings
1 star 2 stars 3 stars 4 stars 5 stars
comments

Electric Funeral Tab

Black Sabbath
Elecric Funeral
Paranoid

This song is so awsome get the album paranoid its worth it!

((((>~~~~***THESE RIFFS SOUND TOO LOW!***~~~~<))))
__________________________________________________
|---------------------|--------------------------|
|---------------------|--------------------------|
|---------------------|--------------------------|
|---------------------|--------------------------|
|-----2h3-2-----------|---2-1-0------------------|
|-0-0--------0-2h3-2--|-0-------3----------------|

so i made them 1/2 step higher sounds more like it

Main Riff (wah-wah)
|---------------------|
|---------------------|
|---------------------|
|---------------------|
|-----3/4-3-----------|
|-1-1--------1--3/4-3-|

Verse (wah-wah)
|-------------------|
|-------------------|
|-------------------|
|-------------------|
|---------3~-2~-1---|
|-1-1-1-1---------4-|
PM. . . .       . .

Bridge (no effect)
|------------|
|------------|
|------------|
|------------|
|-15--14--13-|
|-13--12--11-|
[ Tab from: http://www.guitartabs.cc/tabs/b/black_sabbath/electric_funeral_tab_ver_11.html ]
|----------12-12-12-12-12-12-|
|----------12-12-12-12-12-12-|
|----------12-12-12-12-12-12-|
|----------------------------|
|----------------------------|
|-15-13-15-------------------|
|-13-11-13-------------------|

|-----------------------8-----------------------|
|----9-11-9-11^----9-11-------------------------|
|-10------------10--------10--------------------|
|-----------------------------------------------|
|-----------------------------------------------|
|-----------------------------------------------|

 when ozzy sais "elecrtic fun'ral" then play this 4x
|-12^-12^-12^-12^-------------------------------|
|-----------------------------------------------|
|-----------------------------------------------|
|-----------------------------------------------|
|-----------------------------------------------|
|-----------------------------------------------|

play this x2
|-----------------------------------------------|
|---------10/12\10------------------------------|
|-7-7-7-9---------------------------------------|
|-----------------------------------------------|
|-----------------------------------------------|
|-----------------------------------------------|

then
|-----------|
|-----------|
|-7-7-7-9^*-|
|-----------|
|-----------| 
|-----------| *hold bend untill tone disappears

ok thats all the riffs just reapeat all this stuff as
much as necesary

later!
Comments