Black Sabbath - Electric Funeral Chords & Tabs

 

Electric Funeral Chords & Tabs

Black Sabbath Chords & Tabs

Version: 1 Type: Tab 0 ratings
1 star 2 stars 3 stars 4 stars 5 stars
comments

Electric Funeral Tab

                BLACK SABBATH ELECTRIC FUNERAL




riff 1

e----------------------------------
B----------------------------------
G----------------------------------
D----------------------------------
A-------2-3-2v---------------------
E---0-0--------0-2-3-2v------------

riff 2

e-----------------------------------
B-----------------------------------
G-----------------------------------
D-----------------------------------
A-------2v-1v-0---------------------
E-----0------------3----------------


riff3

e-----------------------------------
B-----------------------------------
G-----------------------------------
D-----------------------------------
A----------7--6--5------------------
E----------7--6--5------------------



riff4 and solo


[ Tab from: http://www.guitartabs.cc/tabs/b/black_sabbath/electric_funeral_tab.html ]
e-------------------12-12-12-12-12-12-----
B-------------------12-12-12-12-12-12-----
G-------------------12-12-12-12-12-12-----
D-----------------------------------------
A------14--12--14-------------------------
E------12--10--12-------------------------



e----------------------------------------------------------------
B----------------------------------------------------------------
G--------------12--14---12---14b-----------12--14-14b--12--------
D--------14---------------------------14-------------------14----
A----------------------------------------------------------------
E----------------------------------------------------------------

riff5 is done when ozzy is screaming electric funeral 
e-----------------------------------------------------------
B-----------------------------------------------------------
G--------15b-15b-15b-15v--the-last-time-you-do-this-/17b----
D-----------------------------------------------------------
A-----------------------------------------------------------
E-----------------------------------------------------------



tabbed by Casey 
Comments