Black Sabbath - Electric Funeral Live Chords & Tabs

 

Electric Funeral Live Chords & Tabs

Black Sabbath Chords & Tabs

Version: 1 Type: Tab 0 ratings
1 star 2 stars 3 stars 4 stars 5 stars
comments

Electric Funeral Live Tab

   
(Live)                               ELECTRIC FUNERAL 
                                     BY             H=hammer-on
                                 BLACK SABATH       fbr=full-bend and release   
Standard tuning EADGBE..                            hb=half-bend
                                                    /=slide up 

INTRO  And (Riff A  ) With WAH WAH
1------------------------------------------------------------------------
2------------------------------------------------------------------------
3------------------------------------------------------------------------
4------------------------------------------------------------------------
5------2H3--2~~----------------------------------------------------------
6--0-0---------0--2H3-2~~~-----------------------------------------------

Riff B
1-------------------------------------------------------------------------
2-------------------------------------------------------------------------
3-------------------------------------------------------------------------
4-------------------------------------------------------------------------
5------2~~--1~~-0---------------------------------------------------------
6--0---------------3~-----------------------------------------------------

Riff C
1-------------------------------------------------------------------------
2-------------------------------------------------------------------------
3-------------------------------------------------------------------------
4-------------------------------------------------------------------------
5----------2~~--1~~--0----------------------------------------------------
6--0-0-0-0---------------3~~----------------------------------------------

Riff D
1-------------------------------------------------------------------------
2-------------------------------------------------------------------------
3-------------------------------------------------------------------------
4-------------------------------------------------------------------------
5------------------------------------9~-8~-7~-----------------------------
6----0-0-0-0-0-0-0-0-0-0-0-0-0-0-0---7~-6~-5~-----------------------------

Riff E
1-------------------------------------------------------------------------
2-------------------------------------------------------------------------
3-------------------------------------------------------------------------
4-------------------------------------------------------------------------
5------------------------9~-8~-7~-----------------------------------------
6----0-0-0-0-0-0-0-0-0-0-7~-6~-5~-----------------------------------------
[ Tab from: http://www.guitartabs.cc/tabs/b/black_sabbath/electric_funeral_live_tab.html ]
Riff F
1------------------12--12-12-12------------------------------------------
2------------------12--12-12-12------------------------------------------
3--7--5--7---------12--12-12-12------------------------------------------
4--7--5--7---------------------------------------------------------------
5--5--5--5---------------------------------------------------------------
6------------------------------------------------------------------------

Riff G
1------------------------------------------------------------------------
2------------------------------------------------------------------------
3-----12--14--12--14fbr-12-----12--14--14fbr--12-------------------------
4--14----------------------14---------------------14---------------------
5------------------------------------------------------------------------
6------------------------------------------------------------------------

Riff H
1-------------------------------------------------------------------------
2--12-------12~------12~--------------------------------------------------
3--15hb-----15hb~----15hb~------------------------------------------------
4-------------------------------------------------------------------------
5-------------------------------------------------------------------------
6-------------------------------------------------------------------------

Riff I  With WAh
1--------------------------------------------------------------------------
2--3-------3~----------3~--------------------------------------------------
3--5hb-----5hb~--------5hb~------------------------------------------------
4--------------------------------------------------------------------------
5--------------------------------------------------------------------------
6--------------------------------------------------------------------------

Riff J the endssssss...........
1--------------------------------------------------------------------------
2--------------------------------------------------------------------------
3--------------------------------------------------------------------------
4--------------------------------------------------------------------------
5--9/5---------------------------------------------------------------------
6--7/3---------------------------------------------------------------------


How to Play the Song......

Intro(4x)
Riff B (1)
Riff C (7x)
Riff A (4x)
Riff B (1)
riff C (7x)
Riff D (3x)
Riff E (2x)
Riff F (4x)
Riff G (2x)
Riff F (4x)                     Tabbed By Mario Lara
Riff G (2x)
Riff H (3x)
Riff I (3x)
Riff A (4x)
Riff B (1)
Riff C (7x)
Riff A (4x)
Riff D (3x)
Riff E (2x)
Riff J (1x)
Comments