Black Sabbath - Electric Funeral Correct Chords & Tabs

 

Electric Funeral Correct Chords & Tabs

Black Sabbath Chords & Tabs

Version: 1 Type: Tab 0 ratings
1 star 2 stars 3 stars 4 stars 5 stars
comments

Electric Funeral Correct Tab

e||----------------------------------------|| 
B||----------------------------------------||
G||----------------------------------------||
D||----------------------------------------||
A||----------2h3--2~~~---------------------||
E||----0--0-------------0--2h3--2~~~-------||  X 4

e||------------------------------||
B||------------------------------||
G||------------------------------||
D||------------------------------||
A||-------2~~~--1~~~--0----------||
E||----0-----------------3-------||  X 1

e||---------------------------------||
B||---------------------------------||
G||---------------------------------||
D||---------------------------------||
A||----------2~~~--1~~~--0----------||
E||----0-XXX----------------3-------||  X 7

e||----------------------------------------|| 
B||----------------------------------------||
G||----------------------------------------||
D||----------------------------------------||
A||----------2h3--2~~~---------------------||
E||----0--0-------------0--2h3--2~~~-------||  X 4

e||------------------------------||
B||------------------------------||
G||------------------------------||
D||------------------------------||
A||-------2~~~--1~~~--0----------||
E||----0-----------------3-------||  X 1

e||---------------------------------||
B||---------------------------------||
G||---------------------------------||
D||---------------------------------||
A||----------2~~~--1~~~--0----------||
E||----0-XXX----------------3-------||  X 7

e||----------------------------------------|| 
B||----------------------------------------||
G||----------------------------------------||
D||----------------------------------------||
A||----------2h3--2~~~---------------------||
E||----0--0-------------0--2h3--2~~~-------||  X 4

e||------------------||
B||------------------||
G||------------------||
D||----7--6--5-------||
A||----7--6--5-------||
E||----7--6—-5~------||  X 5

e||----------------12--12--12--12--12-------||
B||----------------12--12--12--12--12-------||
G||----------------12--12--12--12--12-------||
D||-----------------------------------------||
A||-----------------------------------------||
E||----12--10--12---------------------------||  X 4


e||----------------------------------------------------------------||
B||---8-10-8-12---8-10-12-10-8---8-10-8-12---8-10-12-10-12---------||
G||-9-----------9--------------9-----------9-----------------------||
D||----------------------------------------------------------------||
A||----------------------------------------------------------------||
E||----------------------------------------------------------------||  X 1
[ Tab from: http://www.guitartabs.cc/tabs/b/black_sabbath/electric_funeral_correct_tab.html ]
e||----------------12--12--12--12--12-------||
B||----------------12--12--12--12--12-------||
G||----------------12--12--12--12--12-------||
D||-----------------------------------------||
A||-----------------------------------------||
E||----12--10--12---------------------------||  X 4
e||----------------------------------------------------------------||
B||---8-10-8-12---8-10-12-10-8---8-10-8-12---8-10-12-10-12---------||
G||-9-----------9--------------9-----------9-----------------------||
D||----------------------------------------------------------------||
A||----------------------------------------------------------------||
E||----------------------------------------------------------------||  X 1

E||---------------------||
B||---------------------||
G||----17b—17b—17b—17b--||
D||----15b—15b—15b—15b--||
A||---------------------||
E||---------------------||  X 4

E||---------------------------------------------------------||
B||---------------------------------------------------------||
G||----7--7--7--9/(15)---7--7--7--9/(15)---7--7--7--9-------||
D||---------------------------------------------------------||
A||---------------------------------------------------------||
E||---------------------------------------------------------||  X 1

e||----------------------------------------|| 
B||----------------------------------------||
G||----------------------------------------||
D||----------------------------------------||
A||----------2h3--2~~~---------------------||
E||----0--0-------------0--2h3--2~~~-------||  X 4

e||------------------------------||
B||------------------------------||
G||------------------------------||
D||------------------------------||
A||-------2~~~--1~~~--0----------||
E||----0-----------------3-------||  X 1

e||---------------------------------||
B||---------------------------------||
G||---------------------------------||
D||---------------------------------||
A||----------2~~~--1~~~--0----------||
E||----0-XXX----------------3-------||  X 7

e||----------------------------------------|| 
B||----------------------------------------||
G||----------------------------------------||
D||----------------------------------------||
A||----------2h3--2~~~---------------------||
E||----0--0-------------0--2h3--2~~~-------||  X 4


e||------------------------------||
B||------------------------------||
G||------------------------------||
D||------------------------------||
A||-------2~~~--1~~~--0----------||
E||----0-----------------3-------||  X 1


e||---------------------------------||
B||---------------------------------||
G||---------------------------------||
D||---------------------------------||
A||----------2~~~--1~~~--0----------||
E||----0-XXX----------------3-------||  X 8 (FADE OUT)
Comments