Black Sabbath - Electric Funeral Chords & Tabs

 

Electric Funeral Chords & Tabs

Black Sabbath Chords & Tabs

Version: 7 Type: Bass Tab 0 ratings
1 star 2 stars 3 stars 4 stars 5 stars
comments

Electric Funeral Bass Tab

Artist:Black Sabbath
Title: Electric Funeral
Album: Paranoid (1970)
Tuning:EADG
Tabber: Justin van Uum
[ Tab from: http://www.guitartabs.cc/tabs/b/black_sabbath/electric_funeral_btab_ver_7.html ]
Main riff without vocals.
This riff play geezer low,but you can play an octave higher,I tab them both.
Low version.
G-------------------|
D-------------------|
A----2-3-2----------|
E-0-0------0-2-3-2--|
high version
G-----4-5-4--------|
D------------4-5-4-|
A-7-7-------7------|
E------------------|
Main riff without vocals.Geezer plays the high version,but the low can also.I tab them both ;)
Low version
G---------------------------|
D---------------------------|
A--2-1-0-----------2-1-0----|
E-0-----3--0-0-0-0-------3--|
High version
G------------------------------|
D---9-8-7-------------9-8-7----|
A-7-------10--7-7-7-7-------10-|
E------------------------------|
The song speeds up.
G-----------------------------|
D-----------------------------|
A-----------------------------|
E-0-0-0-0-0-0-0000000000000---|

Then there is a rest.Put up the volume two dots higher.
G----------------|
D-2-0-2--5-5-55--|
A----------------|
E----------------|

''Builings crashing down................"
G------4-7-9--------------|
D--5-7--------5-7-8-7-5---|
A-7----------7------------|
E-------------------------|

"electric funeral..........."
G--------------|
D--------------|
A-7-6-5--------|
E------7-6-5---|

G-------------|
D-------------|
A-5-5-5-7/10--|
E-------------|

put volume two dots back.
That's it.Enjoy!
Comments