Black Sabbath - Electric Funeral Chords & Tabs

 

Electric Funeral Chords & Tabs

Black Sabbath Chords & Tabs

Version: 6 Type: Bass Tab 0 ratings
1 star 2 stars 3 stars 4 stars 5 stars
comments

Electric Funeral Bass Tab

   
Intro/Refrain
G|--------------------------------------------------------------------------|
D|--------------------------------------------------------------------------|
A|-----2h3p2---------------2h3p2-------------2h3p2--------------2h3p2-------|
E|-00-------02h3p200----------02h3p200--------02h3p200---------------2h3p2--|

Goes Along With Vocals
G|--------------------------------------------------------------------------|
D|--------------------------------------------------------------------------|
A|--------------------------------------------------------------------------|
E|--07653-07653-07653-07653-07653-07653-07653-07653-------------------------|

G|--------------------------------------------------------------------------|
D|--------------------------------------------------------------------------|
A|-----2h3p2---------------2h3p2-------------2h3p2--------------2h3p2-------|
E|-00-------02h3p2--00----------02h3p200--------02h3p200---------------2h3p2|

G|--------------------------------------------------------------------------|
D|--------------------------------------------------------------------------|
A|--------------------------------------------------------------------------|
E|--07653-07653-07653-07653-07653-07653-07653-07653-------------------------|
[ Tab from: http://www.guitartabs.cc/tabs/b/black_sabbath/electric_funeral_btab_ver_6.html ]
G|------------------  -----------------------57------------------57---------|
D|-----------------   ---5555-----55555----57-------575-------57------575---|
A|-765-765-765-765-   757------757-------57-------57----7--57-------57---7--|
E|------------------  ------------------------------------------------------|
                    ^(guitar) 
G|--------------------------------------57------------57--------------------|
D|-----5555----5555----5555----5555---57----575-----57----575---------------|
A|--757-----757-----757-----757-----57----57---7--57----57---7--------------|
E|--------------------------------------------------------------------------|


G|--------------------------------------------------------------------------|
D|----------------------------------3------3------3------3------------------|
A|-765430-765430-765430-765430--3335-5 3335-5 3335-5-3335-------------------|
E|--------------------------------------------------------------------------|

G|--------------------------------------------------------------------------|
D|--------------------------------------------------------------------------|
A|-----2h3p2---------------2h3p2-------------2h3p2--------------2h3p2-------|
E|-00-------02h3p200----------02h3p200--------02h3p200---------------2h3p2--|

G|--------------------------------------------------------------------------|
D|--------------------------------------------------------------------------|
A|--------------------------------------------------------------------------|
E|--07653-07653-07653-07653-07653-07653-07653-07653-------------------------|

G|--------------------------------------------------------------------------|
D|--------------------------------------------------------------------------|
A|-----2h3p2---------------2h3p2-------------2h3p2--------------2h3p2-------|
E|-00-------02h3p200----------02h3p200--------02h3p200---------------2h3p2--|

G|-----------------------------------------------------|
D|-----------------------------------------------------|
A|-----------------------------------------------------|
E|--07653-07653-07653-07653-07653-07653-07653-07653----|............


| /  slide up
| \  slide down
| h  hammer-on
| p  pull-off
| ~  vibrato
| +  harmonic
| x  Mute note
=============================================================================
Listen to the song for the rhythm. You can jazz it up more after you get the main idea of it.
Comments