Black Sabbath - Electric Funeral Chords & Tabs

 

Electric Funeral Chords & Tabs

Black Sabbath Chords & Tabs

Version: 5 Type: Bass Tab 0 ratings
1 star 2 stars 3 stars 4 stars 5 stars
comments

Electric Funeral Bass Tab

   Artist:Black Sabbath 
     Song:Electric Funeral
Tabbed By:Mitch Pollett
 My Email:mitch_1088@hotmail.com


Intro
G----------------------------------------------------------------|
D----------------------------------------------------------------| 4 times
A--------2h3-2---------------------------------------------------|
E---0-0---------0--2h3-2-----------------------------------------|

Verse
G----------------------------------------------------------------|
D----------------------------------------------------------------| 8 times
A----------------------------------------------------------------|
E--0----7-6-5-3~-------------------------------------------------|
     Reflex in the sky warn you you're gonna die
     Storm coming, you'd better hide from the atomic tide
     Flashes in the sky turns houses into sties
     Turns people into clay, radiation minds decay

G----------------------------------------------------------------|
D----------------------------------------------------------------| 4 times
A--------2h3-2---------------------------------------------------|
E---0-0---------0--2h3-2-----------------------------------------|

Verse
G----------------------------------------------------------------|
D----------------------------------------------------------------| 8 times
A----------------------------------------------------------------|
E----0--7-6-5-3~-------------------------------------------------|
     Robot minds of robot slaves lead them to atomic rage
     plastic flowers, melting sun, fading moon falls upon
     dying world of radiation, victims of mad frustration
     Burning globe of oxy'n fire, like electric funeral pyre

G----------------------------------------------------------------|
D----------------------------------------------------------------| 4 times
A--------2h3-2---------------------------------------------------|
E---0-0---------0--2h3-2-----------------------------------------|

G----------------------------------------------------------------|
D----------------------------------------------------------------| 5 times
A----5-4-3-------------------------------------------------------|
E----------------------------------------------------------------|
  Let the 3 ring out.
     
G----------------------------------------------------------------|
D----------------------------------------------------------------| 4 times
A-----7-5-7---101010-00------------------------------------------|
E----------------------------------------------------------------|
[ Tab from: http://www.guitartabs.cc/tabs/b/black_sabbath/electric_funeral_btab_ver_5.html ]
G----------------------------------------------------------------|
D----------------------------------------------------------------| 2 times
A------10-12-10-12------10-12-13-12-10---------------------------|
E---12---------------12------------------------------------------|
     Buildings crashing down to a cracking ground
     Rivers turn to wood, ice melting to flood

G----------------------------------------------------------------|
D----------------------------------------------------------------| 4 times
A-----7-5-7---101010-00------------------------------------------|
E----------------------------------------------------------------|

G----------------------------------------------------------------|
D----------------------------------------------------------------| 2 times
A------10-12-10-12------10-12-13-12-10---------------------------|
E---12---------------12------------------------------------------|
     Earth lies in death bed, clouds cry water dead
     Tearing life away, here's the burning pay

G----------------------------------------------------------------|
D----------------------------------------------------------------| 7 times
A--5-4-333-------------------------------------------------------|
E----------------------------------------------------------------|
     Electric Funeral, Electric Funeral, 
     Electric Funeral, Electric Funeral

G----------------------------------------------------------------|
D----------------------------------------------------------------| 4 times
A--------2h3-2---------------------------------------------------|
E---0-0---------0--2h3-2-----------------------------------------|

Verse
G----------------------------------------------------------------|
D----------------------------------------------------------------| 8 times
A----------------------------------------------------------------|
E----0--7-6-5-3~-------------------------------------------------|
     And so in the sky shines the electric eye
     supernatural king takes earth under his wing
     Heaven's golden chorus sings, Hell's angels flap their wings
     Evil souls fall to Hell, ever trapped in burning cells!

G----------------------------------------------------------------|
D----------------------------------------------------------------| 4 times
A--------2h3-2---------------------------------------------------|
E---0-0---------0--2h3-2-----------------------------------------|

G----------------------------------------------------------------|
D----------------------------------------------------------------| 8 times
A----------------------------------------------------------------|
E----0--7-6-5-3~-------------------------------------------------|
    Do it about 8 times and let it ring.

Ok finally got that done. If you have any questions or comments my email
again is mitch_1088@hotmail.com. You will have to listen to the song to
get the timing i tryed my best but this was my first tab so good luck.
Comments