Black Sabbath - Electric Funeral Chords & Tabs

 

Electric Funeral Chords & Tabs

Black Sabbath Chords & Tabs

Version: 4 Type: Bass Tab 0 ratings
1 star 2 stars 3 stars 4 stars 5 stars
comments

Electric Funeral Bass Tab

G:-------------------
D:-------------------
A:------2-3-2--------         X4
E: -0-0-------0-2-3-2
[ Tab from: http://www.guitartabs.cc/tabs/b/black_sabbath/electric_funeral_btab_ver_4.html ]
G:-------------------
D:-------------------
A:---2--1-----0------         X8
E:-0------------3----
Just Play Over and Over
Comments