Black Sabbath - Electric Funeral Chords & Tabs

 

Electric Funeral Chords & Tabs

Black Sabbath Chords & Tabs

Version: 10 Type: Bass Tab 0 ratings
1 star 2 stars 3 stars 4 stars 5 stars
comments

Electric Funeral Bass Tab

ELECTRIC FUNERAL
BLACK SABBATH
PARANOID ALBUM 

- STANDARD TUNING
- BASS

INTRO
G-----9--7----------------|  |-----9--7-----------------|
D----------9----7\--------|  |----------9----7-8\-------|
A-7-7---------------------|  |-7-7----------------------|
E-------------------2-3-2-|x2|--------------------2-3-2-|x1

G-----9--7----------------|
D----------9----7\--------|
A-7-7---------------------|
E-------------------2-3-2-|x1

VERSE
G-------------|  |-------------------|
D---9~~8~~7-5-|  |---------9~~8~~7-5-|
A-7-----------|  |-7-7-7-7-----------|
E-------------|x1|-------------------|x7

THEN:
INTRO RIFF
VERSE RIFF
INTRO RIFF

PRE-BRIDGE
G||----------------------------------------------------------------------||
D||.--------------------------------------------------------------------.||
A||.-7-7-7-7-7-7-7-7-7-7-7-7-7-7-7-7-7-7-7-7-7-7-7-7-7-7-7-7-7-7-7-7-7--.||
E||----------------------------------------------------------------------||
[ Tab from: http://www.guitartabs.cc/tabs/b/black_sabbath/electric_funeral_btab_ver_10.html ]
          GUITAR ONLY
G-------||------------|
D-------||------------|
A-7-----||------------|
E-------||------------|
HOLD NOTE

BRIDGE/INTERLUDE
G------------------|---------------|| |---------7-9-|--------------|
D----------5-5-5-0-|-------5-5-5-0-|| |---5-7-9-----|---6-7-8-7-5--|
A-2/-7-5-7---------|-7-5-7---------|| |-7-----------|-7------------|
E------------------|---------------|| |-------------|--------------|x2

G---------------|  |---------7-9-|-------------||
D-------5-5-5-0-|  |---5-7-9-----|---6-7-8-7-5-||
A-7-5-7---------|  |-7-----------|-7-----------||
E---------------|x4|-------------|-------------||x2

G-------------|  |--------------|  |------------|-------|
D-------------|  |---------5----|  |---------5~-|-------|
A-7-6-5-------|  |-5-5-5-7---7--|  |-5-5-5-7----|-------|
E-------7-6-5-|x4|--------------|x2|------------|-------|
"Electric funeral."

THEN:
INTRO RIFF
VERSE RIFF
INTRO RIFF
VERSE RIFF FADE OUT TILL END OF SONG.

THANKS.
ratbollocks.
Comments