Black Sabbath - Electric Funeral Chords & Tabs

 

Electric Funeral Chords & Tabs

Black Sabbath Chords & Tabs

Version: 1 Type: Bass Tab 0 ratings
1 star 2 stars 3 stars 4 stars 5 stars
comments

Electric Funeral Bass Tab

Subject: Black Sabbath's "Electric Funeral" - Corrected Bass Tabs
Date: June 12th 2006
From: lina.inverse@gmail.com (Victoria J. Tanski) & blue_a_death@yahoo.com (Louis D. Pulfrey)

Notes:
We're trying not to make this complicated but it is, considering it's black 
sabbath. Listen to the song while playing. Figures are chronological, 
subjective and done by ear (so keep that into consideration). Have Fun ;)

Standard Tuning [EADG]

   KEY
h  = hammer on
p  = pull off
~  = sustain note
/  = slide up
\  = slide down
X  = muted/unfretted
:  = repeat this part of the figure

-------------------------------------------------------------------------
                           Black Sabbath
                         "Electric Funeral"
                      From the album "Paranoid"
-------------------------------------------------------------------------

   Figure 1
G||----------------------------||
D||----------------------------||
A||-------2-3-2----------------||
E||--0-0---------0--2-3-2------||

   Figure 2 
||--------------------||
||--------------------||
||-----------2-1-0----||
||--0-0-0-0--------3--||
[ Tab from: http://www.guitartabs.cc/tabs/b/black_sabbath/electric_funeral_btab.html ]
   Figure 3
||----------------------------||
||----------------------------||
||----------------------------||
||---12-11-10~~---------------||

   Figure 4
||------------------------------||
||------------------------------||
||------------10-10-10-10-10-10-||
||--12-10-12--------------------||

   Figure 5 
||----------------9--|--------------------||
||-----------9-12----|-----------9--------||
||-----10-12---------|-----10-12---12-10--||
||--12---------------|--12----------------||

   Figure 6 transitions to 7 (use fig 6 only once, use fig 7 after)
||-----------------------|---------------||
||-----------------------|---------------||
||-----------------------|-7-6-5---------||
||---12--11--10--7--6--5-|-------7-6-5---||

   Figure 8 & 9
||------------------|----------||
||------------------|----------||
||---5-5-5-7/10\7---|--5-5-7---||
||------------------|----------||


-------------------------------------------------------------------------

Figure Map:
fig 1 x4
fig 2 x8
fig 1 x4
fig 2 x8
fig 1 x4
fig 3 x5
fig 4 x2
fig 5 x2
fig 4 x4
fig 5 x2
fig 6 
fig 7 x3
fig 8 x3
fig 9 
fig 1 x4
fig 2 x8
fig 1 x4
fig 2 x4+ (play until you wish to end)
Comments