Black Sabbath - Die Young Chords & Tabs

 

Die Young Chords & Tabs

Black Sabbath Chords & Tabs

Version: 1 Type: Bass Tab

Die Young Bass Tab

Intro:
|-------------------------4-6------------------------------|
|---------4-6-4----------4-6---------4-6-4---------6-4-3---|
|-6-6-6-6-------6-6-6-6-2-4--6-6-6-6-------6-6-6-6-------4-|
|----------------------------------------------------------|
[ Tab from: http://www.guitartabs.cc/tabs/b/black_sabbath/die_young_btab.html ]
Verse:
-----------------------------------------------------------------------------|
------------------------------------------------4-6-4-----------------6-4-3--|
66666666666666-2222222-4444444-666666666666666-------666666666666666-------4-|
-----------------------------------------------------------------------------|
                                                  |.....................|

					    ="...you're back to the wall..."
----------------------------------------------------|
----------------------------------------------------|
-6666666666666666-22222222-44444444-666666666666666-|
----------------------------------------------------|

--(4)(4)---(6)(6)--|----------|
-------------------|-6-4-3----|