Black Sabbath - Country Girl Chords & Tabs

 

Country Girl Chords & Tabs

Black Sabbath Chords & Tabs

Version: 1 Type: Tab 0 ratings
1 star 2 stars 3 stars 4 stars 5 stars
comments

Country Girl Tab

Each "-" is one sixteenth rest. There are 16 "-" in each measure.

Fig. 1 (4 bars)                                                    x2
|----------------|----------------|----------------|----------------|
|----------------|----------------|----------------|----------------|
|----------------|----------------|----------------|----------------|
|--------5-5-----|----------------|--------5-5-----|----------------|
|577-7-57----7-75|----------------|577-7-57----7-75|----------------|
|----------------|8---7---3---2---|----------------|8---7---3---2---|

Continue Fig. 1 for another 8 bars.

|----------------|----------------|
|----------------|----------------|
|----------------|----------------|
|----------------|------------5---|
|----------------|--------------9-|
|577-7-578-7---57|8---7---8-7-----|
[ Tab from: http://www.guitartabs.cc/tabs/b/black_sabbath/country_girl_tab.html ]
Play Fig. 1 for 12 bars.
                x4
|----------------|
|----8-7---------|
|--9-9-7--hold---|
|-9--9-7--chord--|
|7---7-5---------|
|----------------|

Fig. 3 (2 bars)
|----------------|----------------|
|----8-----------|----5-----------|
|----9-----------|----4-----------|
|--9-------7-5---|--5-------------|
|7-hold--5-----54|3-hold----9-109-|

Continue Fig. 3 for 6 bars
                x3
|----------------|  |--------|  |----------------|
|----8-7---------|  |----8-7-|  |----------------|
|--9-9-7--hold---| 2|--9-9-7-| 4|hold-chords-from|
|-9--8-7--chord--| -|-9--9-7-| -|-previous-------|
|7---7-5---------| 4|7---7-5-| 4|-----measure----|
|----------------|  |--------|  |----------------|

Solo (4 bars) dont have tabbed. Backing Guitar playes Fig. 1 (4 bars)

Play Fig. 1 for 8 bars

Play Fig. 2 for 2 bars

Play Fig. 1 for 14 bars

Repeat and Fade
|
Comments