Black Sabbath - Children Of The Grave Chords & Tabs

 

Children Of The Grave Chords & Tabs

Black Sabbath Chords & Tabs

Version: 2 Type: Tab 1 rating
1 star 2 stars 3 stars 4 stars 5 stars
comments

Children Of The Grave Tab

Children Of The Grave
Black Sabbath - Master Of Reality (1971) 
Tabbed by : Oscar Meza 
E-mail: hammetcr@yahoo.com


Ok guys this is a heavy metal classic I can recomend it 
to anyone in the world.
Alright guys have fun!!!!!!!




Tune down 1 1/2 steps

Palm MUTE 


---------------------------------------------------------------------
---------------------------------------------------------------------
---------------------------------------------------------------------
-2---2----2-2-2----2---2----2-2-2----2---2----2-2-2--10--9------------
-2---2----2-2-2----2---2----2-2-2----2---2----2-2-2--10--9------------
-0---0----0-0-0----0---0----0-0-0----0---0----0-0-0--8--7------------

-------------------------------------------------
-------------------------------------------------
-------------------------------------------------
-------------------------------------------------
---12/14--17--17-10-----10-/12-------12\---------
---10/12--15--15--8------8-/10-------10\---------

----------------------------------------------------------------------
----------------------------------------------------------------------
----------------------------------------------------------------------
--2---2---2-2-2---2---2---2-2-2----2--2---2-2-2----2------------------
--2---2---2-2-2---2---2---2-2-2----2--2---2-2-2----2---5--------------
--0---0---0-0-0---0---0---0-0-0----0--0---0-0-0----0---3--------------

---15----------
---18^---------
---------------
---------------
---------------
---------------

----------------------------------------------------------------------
----------------------------------------------------------------------
----------------------------------------------------------------------
-----------------------2------------------------2---------------------
--------0--2--0--1--2-----------------0--1--2------1--0---------------
--0--3--------------------------0--3----------------------------------

----------------------------------------------------------------------
----------------------------------------------------------------------
----------------------------------------------------------------------
---9----12--9---------------------9---12--9---------------------------
---7----10--7--9--8---8--9-11-12--7---10--7--12-11--11-12-------------
--------------x7--6---6--7--9-10------------x10--9---9-10-------------

Solo:
|--12--12-----12--12-----12-(12)(12)---------------------------
|--15^-15^----15^-15^----15^(15)(15)15p12----------------------
|----------------------------------------14^-12-12-14-12----12-
|--------------------------------------------------------14----
|--------------------------------------------------------------
|--------------------------------------------------------------
[ Tab from: http://www.guitartabs.cc/tabs/b/black_sabbath/children_of_the_grave_tab_ver_2.html ]
|------12---12-------------------|-----------------------------12-
|----12--15^---15p12-------------|---------------------------12---
|-14^---------------14^-(12--14)-|-12--12--------------12-14^-----
|--------------------------------|---14--14-12-14-12h14-----------
|--------------------------------|--------------------------------
|--------------------------------|--------------------------------

|------12----------------------------|-------------------------------------
|-15^------15p12---------------------|-------------------------------------
|---------------14^-14-12-14--12--12-|-------------------------------------
|-------------------------------14---|-14-12-14--12---12----------------12-
|------------------------------------|-------------14----14-12-10-12/14----
|------------------------------------|-------------------------------------

|---------------12----------------|-----------------------15----
|-------------12--15p12-----------|-------15-12-15-12-/17-------
|-------12-14^---------14^-12--12-|-14-12-----------------------
|-12h14----------------------14---|-----------------------------
|---------------------------------|-----------------------------
|---------------------------------|-----------------------------

|-17/18p15--17/18p15--17/18p15--17/18p15-|-17p15----15-----------------------
|----------------------------------------|------17----1715-------------------
|----------------------------------------|----------------16\1412-1412----12-
|----------------------------------------|-----------------------------14----
|----------------------------------------|-----------------------------------
|----------------------------------------|-----------------------------------

|------12----12----------------|---------------12-----12----------------
|--------15^-----15p12---------|-----------------15^-----15p12----------
|-14^-----------------14^^--14-|-12----12-14^------------------14^^p12--
|-------------------------14---|-----14---------------------------------
|------------------------------|----------------------------------------
|------------------------------|----------------------------------------

|-------------------------------|--------------12--------------------
|-------------------------------|-----------------15p12--------------
|-14-12----12----------------12-|-14-(12)-14^-----------14p12----12--
|-------14----14p12-14-12h14----|-----------------------------14-----
|-------------------------------|------------------------------------
|-------------------------------|------------------------------------

|-------------------------------------|------------------------------
|-------------------------------------|------------------------------
|-------------------------------------|--------------12--------------
|-14-12-14-12----12-------------------|-----12-12h14----14p12--------
|-------------14----14\12-10-12-10-12/|/14---------------------7--4--
|-------------------------------------|------------------------------

Ending
|---12--12----14--14---15--15---16--16---17--17\-----------
|---15^-15^---17^-17^--18^-18^--19^-19^--20^---------------
|----------------------------------------------------------
|----------------------------------------------------------
|----------------------------------------------------------
|----------------------------------------------------------



Comments