Black Sabbath - Children Of The Grave Chords & Tabs

 

Children Of The Grave Chords & Tabs

Black Sabbath Chords & Tabs

Version: 3 Type: Bass Tab 0 ratings
1 star 2 stars 3 stars 4 stars 5 stars
comments

Children Of The Grave Bass Tab

Part 1

|-------------------------------------------------
|-------------------------------------------------
|-4---4-4-4-4-4---4-4-4-4-4---4-4-4-4-------------
|-------------------------------------5-----4-----

Part 2

|-------------------------------------------------
|-------------------------------------------------
|-4---4-4-4-4-4---4-4-4-4-4---4-4-4-4-7---7-7-7-7-
|-------------------------------------------------

|-------------------------------------------------
|-------------------------------------------------
|-------------------------------------------------
|-5---5-5-5-5-5---5-5-5-5-5---5-5-5-5-5---5-5-5-5-
[ Tab from: http://www.guitartabs.cc/tabs/b/black_sabbath/children_of_the_grave_btab_ver_3.html ]
|-------------------------------------------------
|-------------------------------------------------
|-------------------------------------------------
|-7---7-7-7-7-7---7-7-7-7-7---7-7-7-7-7---7-7-7-7-

Part 3

|-------------4-----6-----------------------------
|-------4-5-6-------------------4-5-6-4-----2-----
|-2-4-7-------------------2-4-7-------------------
|-------------------------------------------------

Part 4

|------------------------------------
|-------2----------------------------
|-4-------4----------------------1-2-
|-----------------4-3--------3-4-----

|------------------------------------
|-------2----------------------------
|-4-------4--------------------------
|-----------------4-3--------3---4---

Part 5

|--------------------------------------------------
|--------------------------------------------------
|-4-4-----5-5-----7-7-----9-9-----10-------10------
|--------------------------------------------------

---
-4-
---
Comments