Black Sabbath - Bassically Chords & Tabs

 

Bassically Chords & Tabs

Black Sabbath Chords & Tabs

Version: 3 Type: Bass Tab 0 ratings
1 star 2 stars 3 stars 4 stars 5 stars
comments

Bassically Bass Tab

   
Black Sabbath
"Bassically" (Intro to N.I.B.)
(From The 1970 Album Black Sabbath)

Gtr.1 = Geezer Butler (4-String Bass w/wah-wah)

Tuning: Standard (EADG)

b  = bend to next note
r  = release bend
qb = quarter bend
h  = hammer-on
p  = pull-off
~  = vibrato


Tempo: 90

G|------------------------------------|--------------------7-9--9p7-9b10--|
D|---------5b6-------5-7-7b7---7-5----|-----5qb-----5-7--9----------------|
A|-7-7-5-----------7---------------7--|-5--------7------------------------|
E|-------7----------------------------|---7-------------------------------|

G|-9-7-------------|----------------------------------------|
D|-----9-7h9--5qb--|---5-7--7b8r7p5---5qb-------------------|
A|-----------------|-7--------------7------7-5--------------|
E|-----------------|----------------------------7qb-3b4--0--|

G|------------------------------------|----------7-9-9--7------------------|
D|------------5----5---7--7b8--7-5----|--5--7/9-----------9-7h9--5qb-------|
A|------5--7----7------------------7--|-----------------------------7p5----|
E|-5-7--------------------------------|--------------------------------7qb-|
[ Tab from: http://www.guitartabs.cc/tabs/b/black_sabbath/bassically_btab_ver_3.html ]
G|------------------------------------|-----------------------------|
D|-----5-----7-7b8---7p5----5qb-------|---------------------5qb-----|
A|---5----7--------------7-------7-5--|-----------------5-7------7--|
E|-7----------------------------------|-7-5-3b4--0--5-7-------------|

G|-------------------------------|----------------------------------|
D|------------5-7-7b9----7--5b6--|-------5--5--7-7b8--7-5-----------|
A|-5---5--5h7--------------------|--5h7-------------------7--5------|
E|---7---------------------------|------------------------------7---|

G|------------------------------7-|--9-9-7--------------------------|
D|---------5qb--7-7b8--7-5----9---|--------9-7h9-5qb-------5qb------|
A|-----5-7------------------7-----|------------------7-5--------7-5-|
E|-5-7----------------------------|----------------------7----------|

G|--------------------|-------------------------|-------------------|
D|-------------5qb----|-----------------5h7p5---|---------5-7b8-7-5-|
A|---7-5---5-7-----7--|-5---5h7-5h7-5h7-------7-|-5---5-7-----------|
E|-7-----7------------|---7---------------------|---7---------------|

G|------------------------------|--------------------|
D|------------------------------|--------------------|  This is where
A|-5h7-5h7-5h7-5h7--5----5--7---|-(7)~~~~~~~~~~~~\5--|  N.I.B. starts
E|---------------------7--------|--------------------|


100% correct, please rate!
Comments