Black Rebel Motorcycle Club - White Palms Chords & Tabs

 

White Palms Chords & Tabs

Black Rebel Motorcycle Club Chords & Tabs

Version: 1 Type: Bass Tab 0 ratings
1 star 2 stars 3 stars 4 stars 5 stars
comments

White Palms Bass Tab

WHITE PALMS
Black Rebel Motorcycle Club
Bass Tab

tabbed by Michael Massberg
          michaelmassberg@gmx.de


Be sure to check out http://www.brmc-basstabs.de.vu
for more B.R.M.C. Basstabs and mp3s to 
every single riff!

Intro and 1st Verse

G----------------------------------
D----------------------------------
A----------4-----------4-----------
E--4h6-6-6---6-6-4-6-6---6-6-4-6---



Break 1

G--------------------------------
D--8\---------6h8\-------------
A--------------------------------
E--------------------------------



Break 2

G--------------------------------
D--x------------------------11\-
A--x-----------------------x-----
E--------------------------------



Break 3

G--------------------------------
D--------------------------------
A-----------------------------4--
E--4h6-6\----4-4-4h8-8\--------



1st Bass Solo Break

G--15-18-18-15-18-18-15-18-18-15-18------------
D----------------------------------------------
A-------------------------------------13p11-13-    3x
E----------------------------------------------

 --15-18-18-15-18-18-15-18-18-------13-------13-
 -----------------------------13h15----13h15-----
 ------------------------------------------------
 ------------------------------------------------



2nd Verse (2:16)

G----------------------------------
D----------------------------------
A----------4-----------4-----------   3x
E--4h6-6-6---6-6-4-6-6---6-6-4-6---


G----------6---------6-6-----6-----
D--6h8-8-8---8-8-6-8-----8-6---8--
A----------------------------------
E----------------------------------

G----------------------------------
D----------------------------------
A----------4-----------4-----------    3x
E--4h6-6-6---6-6-4-6-6---6-6-4-6---

G----------------------------------
D----------------------------------
A----------4-----------4-4-4-6-6---
E--4h6-6-6---6-6-4-6-6-------------

        3/4 riff against 4/4 beat
G------    ----------------          ------
D--8-8-    --8-8-11-11-86-          ------
A------    ----------------   10x    ------
E------    ----------------          --x\-

G----------------------------------
D----------------------------------
A----------4-----------4-----------    3x
E--4h6-6-6---6-6-4-6-6---6-6-4-6---



Break 4

G----------------13-15-15-15-15-15-15-15-13-13---------------
D----------13-15-------------------------------15-13---11-13-
A------------------------------------------------------------
E--6\-------------------------------------------------------



3rd Verse (3:05)

G----------------------------------
D----------------------------------
A----------4-----------4-4-4-6-6---
E--4h6-6-6---6-6-4-6-6-------------
[ Tab from: http://www.guitartabs.cc/tabs/b/black_rebel_motorcycle_club/white_palms_btab.html ]
G----------------------------------
D----------------------------------
A----------4-----------4-----------
E--4h6-6-6---6-6-4-6-6---6-6-4-6---

G----------6-----------6-----------
D--6h8-8-8---8-8-6-8-8---8-8-6-8---
A----------------------------------   3x
E----------------------------------



2nd Bass Solo Break

G--15-18-18-15-18-18-15-18-18-15-18----------------
D--------------------------------------------------
A---------------------------------------13p11-13---    5x
E--------------------------------------------------

G--15-18-15-18-15-18-18-18-15-17-------------------
D--------------------------------------------------
A---------------------------------------13p11-13---
E--------------------------------------------------

 --15-18-18-15-18-18-15-18-18-15-18----------------
 --------------------------------------------------
 ---------------------------------------13p11-13---
 --------------------------------------------------

                               ----> slowly bend up
 --15-18-18-15-18-18-15-18-18-18-18-18-18-18-18-18-
 --------------------------------------------------
 --------------------------------------------------
 --------------------------------------------------



Ending (3:48)

G----------------------------------
D----------------------------------
A----------4-----------4-----------
E--4h6-6-6---6-6-4-6-6---6-6-4-6---

 ----------------------------------
 ----------------------------------
 ----------4-4---------4-4---------
 --4h6-6-6-----6-4-6-6-----6-4-4-6-

 ----------6-6---------6-6---------
 --6h8-8-8-----8-6-8-8-----8-6-8---
 ----------------------------------
 ----------------------------------

 ----------6-6-------6-6-6-----6h8-
 --6h8-8-8-----8-6-8-------8-6-----
 ----------------------------------
 ----------------------------------

 ----------6-6-------6-6-6-------6-
 --6h8-8-8-----8-6-8-------8-6-8---
 ----------------------------------
 ----------------------------------

 --6-6-------6-6-6---------6---8---
 ------8-6-8-------8-6-8-8---------
 ----------------------------------
 ----------------------------------

 ----------------------------------
 ----------------------------------
 ----------4---------4-4---4h6-----
 --4h6-6-6---6-6-4-6-----6-----4h6-

 ----------------------------------
 ----------------------------6-----
 ----------4-4-------4-4-6h8---8-6-
 --4h6-6-6-----6-4-6---------------

 ----------------------------------
 ----------------------------------
 ----------4-----------4-4---4-4---
 --4h6-6-6---6-6-4-6-6-----6-------

G----------------------------------
D----------------------------------
A----------4-4---------4-4-----4---    repeat till fade
E--6-4-6-6-----6-4-6-6-----6-4-----


Comments