Black Rebel Motorcycle Club - We Are All In Love Chords & Tabs

 

We Are All In Love Chords & Tabs

Black Rebel Motorcycle Club Chords & Tabs

Version: 1 Type: Bass Tab 0 ratings
1 star 2 stars 3 stars 4 stars 5 stars
comments

We Are All In Love Bass Tab

WE'RE ALL IN LOVE
Black Rebel Motorcycle Club
Bass Tab

tabbed by Michael Massberg
          michaelmassberg@gmx.de

Be sure to check out http://www.brmc-basstabs.de.vu
for more B.R.M.C. Basstabs and mp3s to 
every single riff!

Intro/Verse (w/ some variations)

G----------------------------------
D----------------------------------
A----------------------------------
E--7---7---7-7-7-7---7-7-7---7-7/5-

 ----------------------------------
 ----------------------------------
 ----------------------------------
 --5---5---5-5-5-5---5-5-5---5-5/3-

 ----------------------------------
 ----------------------------------
 ----------------------------------
 --3---3---3-3-3-3---3-3-3---3-3-3-

 -----------------------------------------------------
 --------------------------------------------12-12h14-
 --12h14-14-14-14-14-14-14-14-14-14-14-14-14----------
 -----------------------------------------------------



Chorus "We're all in love..."
[ Tab from: http://www.guitartabs.cc/tabs/b/black_rebel_motorcycle_club/we_are_all_in_love_btab.html ]
G----------------------------------
D----------------------------------
A--7---7---7-7-7-------------------    4x
E----------------5h7-7-7-7-7-7-7-7-


G------------------------------------------------
D------------------------------------------------
A--12h14-14-14---14-14-14---14-14-14-14-12-12-12-
E------------------------------------------------



Bridge "I'm looking for something..."

G----------------------------------
D----------------------------------
A--3-3-3-3---------5-5-5-5---------
E----------3-3-3-3---------5-5-5-5-

 ------------------------------------
 ------------------------------------
 ------------------------------------    4x
 --5h7-7-7-7-7-7-7-7-7-7-7-7-7-7-7-7-


G--------------------------------------------------
D--10-10-10-10-------------12-12-12-12-------------
A--------------10-10-10-10-------------10-10-10-10-
E--------------------------------------------------

 -----------------------------------------------------
 -----------------------------------------------------
 --12h14-14-14-14-14-14-14-14-14-14-14-14-14-14-14-14-
 -----------------------------------------------------


Comments